>
 >
Change

Change Guitar Tabs

Taylor Swift - Change chords, tabs, tablatures, lyrics

Guitar lessons | Add/correct | Request | Top 50 tabs Artists:  A B C D E F G H I J K L M N O P Q R S T U V W X Y Z 0-9

Change Guitar Tabs – Taylor Swift

CD, Sheet music, Poster

Do you like Change? Share with your friends now
Bass TabsBass Tabs v2ChordsChords v2Chords v3Chords v4Chords v5Chords v6Chords v7Chords v8Chords v9TabsUkulele
Intro Lead Guitar:

e|---------------------------------------------------|
B|--10-10h11p10--10-10h11p10--10-10h11p10-10---------|
G|-------------------------------------------9-9-10--|
D|---------------------------------------------------|
A|---------------------------------------------------|
E|---------------------------------------------------|

e|---------------------------------------------------|
B|--10-10h11p10--10-10h11p10--10-10h11p10-10-13-10---|
G|---------------------------------------------------|
D|---------------------------------------------------|
A|---------------------------------------------------|
E|---------------------------------------------------|

e|-------------------------------------------------------------------------------------|
B|--10-10h11p10--10-10h11p10--10-10h11p10-10----------------------------------11-11-10-|
G|-------------------------------------------9-9-10--10-10-12-10--10-10-12-10----------|
D|-------------------------------------------------------------------------------------|
A|-------------------------------------------------------------------------------------|
E|-------------------------------------------------------------------------------------|


Intro Rhythm Guitar:

    F                C                D                A#
e|--1-1-1-1-1-1-1-1--0-0-0-0-0-0-0-0--0-0-0-0-0-0-0-0-------------------| x2
B|--1-1-1-1-1-1-1-1--1-1-1-1-1-1-1-1--3-3-3-3-3-3-3-3--3-3-3-3-3-3-3-3-|
G|--2-2-2-2-2-2-2-2--0-0-0-0-0-0-0-0--2-2-2-2-2-2-2-2--3-3-3-3-3-3-3-3-|
D|--3-3-3-3-3-3-3-3--2-2-2-2-2-2-2-2--0-0-0-0-0-0-0-0--3-3-3-3-3-3-3-3-|
A|--3-3-3-3-3-3-3-3--3-3-3-3-3-3-3-3-------------------1-1-1-1-1-1-1-1-|
E|--1-1-1-1-1-1-1-1----------------------------------------------------|

Verse:

e|---------------------------------------------------------------------| x2
B|---------------------------------------------------------------------|
G|-------------------5-5-5-5-5-5-5-5--7-7-7-7-7-7-7-7--3-3-3-3-3-3-3-3-|
D|--3-3-3-3-3-3-3-3--5-5-5-5-5-5-5-5--7-7-7-7-7-7-7-7--3-3-3-3-3-3-3-3-|
A|--3-3-3-3-3-3-3-3--3-3-3-3-3-3-3-3--5-5-5-5-5-5-5-5--1-1-1-1-1-1-1-1-|
G|--1-1-1-1-1-1-1-1----------------------------------------------------|
Well it's a sad picture...


Pre-Chorus:

        F            A#           D                   A#              D
e|--------------------------------------------------------------------------|
B|------10------------------------------------------------------------------|
G|------10-----------7---------------------9----------------7---------9-----|
D|------10-----------8------------------10----------------8---8-------10----|
A|------8------------8------------10-10-----------------8-------8-----10----|
E|-------------------6------------8-------------------6-----------6---8-----|
   Well I believe in whatever you do...and I'll do anything to see it through

Chorus:

    F                C                D                A#
e|--1-1-1-1-1-1-1-1--0-0-0-0-0-0-0-0--0-0-0-0-0-0-0-0------------------| x3
B|--1-1-1-1-1-1-1-1--1-1-1-1-1-1-1-1--3-3-3-3-3-3-3-3--3-3-3-3-3-3-3-3-|
G|--2-2-2-2-2-2-2-2--0-0-0-0-0-0-0-0--2-2-2-2-2-2-2-2--3-3-3-3-3-3-3-3-|
D|--3-3-3-3-3-3-3-3--2-2-2-2-2-2-2-2--0-0-0-0-0-0-0-0--3-3-3-3-3-3-3-3-|
A|--3-3-3-3-3-3-3-3--3-3-3-3-3-3-3-3-------------------1-1-1-1-1-1-1-1-|
E|--1-1-1-1-1-1-1-1----------------------------------------------------|
'Cause these things will change...

Solo:

e|-------------------------------------------------------------------------------|
B|-------------------------------------------------------------------------------|
G|-------------------------------------------------------------------------------|
D|-------------------------------------------------------------------------------|
A|--7-8-10--------8--8-10-7--8-10--7-8-10--------8---13-13-12-12-10-10-8-8-7-7-8-|
E|---------6-8-10-------------------------6-8-10---------------------------------|


Solo Rhythm Guitar:
    D                A#                 F                C
e|--------------------------------------1-1-1-1-1-1-1-1-------------------| x2
B|--7-7-7-7-7-7-7-7---------------------1-1-1-1-1-1-1-1--5-5-5-5-5-5-5-5--|
G|--7-7-7-7-7-7-7-7--7-7-7-7-7-7-7-7-7--2-2-2-2-2-2-2-2--5-5-5-5-5-5-5-5--|
D|--7-7-7-7-7-7-7-7--8-8-8-8-8-8-8-8-8--3-3-3-3-3-3-3-3--5-5-5-5-5-5-5-5--|
A|--5-5-5-5-5-5-5-5--8-8-8-8-8-8-8-8-8--3-3-3-3-3-3-3-3--3-3-3-3-3-3-3-3--|
E|-------------------6-6-6-6-6-6-6-6-6--1-1-1-1-1-1-1-1-------------------|

Bridge:

e|-------------------------------------------------------------------------------------------|
B|--10----10----10----10----10----10----10----10----10----10----10----10----3----3----3----3-|
G|--10----10----10----10----10----10----10----10----10----10----10----10----3----3----3----3-|
D|--10----10----10----10----10----10----10----10----10----10----10----10----3----3----3----3-|
A|--8-----8-----8-----8-----8-----8-----8-----8-----8-----8-----8-----8-----1----1----1----1-|
E|-------------------------------------------------------------------------------------------|
Tonight we'll stand up off our knees, stand for what we've worked for all these years

e|-------------------------------------------------------------------------------|
B|--10----10----10----10----10----10----10----10----10----10----10-10-10-10---3--|
G|--10----10----10----10----10----10----10----10----10----10----10-10-10-10---3--|
D|--10----10----10----10----10----10----10----10----10----10----10-10-10-10---3--|
A|--8-----8-----8-----8-----8-----8-----8-----8-----8-----8-----8--8--8--8----1--|
E|-------------------------------------------------------------------------------|
And the battle was long it's the fight of our lives but we'll stand up     champions tonight!

                          F                C                D                 A#
e|------------------------1-1-1-1-1-1-1-1-------0-0-0-0-0-0-0-0-------2-2-2-2-2-2-2-2------------|
B|------------------------1-1-1-1-1-1-1-1-------1-1-1-1-1-1-1-1-------3-3-3-3-3-3-3-3----------3-|
G|------------------------2-2-2-2-2-2-2-2-------0-0-0-0-0-0-0-0-------2-2-2-2-2-2-2-2----------3-|
D|------------------------3-3-3-3-3-3-3-3-------2-2-2-2-2-2-2-2-------0-0-0-0-0-0-0-0----------3-|
A|------------------------3-3-3-3-3-3-3-3-------3-3-3-3-3-3-3-3--------------------------------1-|
E|------------------------1-1-1-1-1-1-1-1--------------------------------------------------------|
It was the night things changed can you see it now these walls that they put up to 
hold us back fell down

    F                C                D                A#
e|--1-1-1-1-1-1-1-1--0-0-0-0-0-0-0-0--2-2-2-2-2-2-2-2------------------| x3
B|--1-1-1-1-1-1-1-1--1-1-1-1-1-1-1-1--3-3-3-3-3-3-3-3--3-3-3-3-3-3-3-3-|
G|--2-2-2-2-2-2-2-2--0-0-0-0-0-0-0-0--2-2-2-2-2-2-2-2--3-3-3-3-3-3-3-3-|
D|--3-3-3-3-3-3-3-3--2-2-2-2-2-2-2-2--0-0-0-0-0-0-0-0--3-3-3-3-3-3-3-3-|
A|--3-3-3-3-3-3-3-3--3-3-3-3-3-3-3-3-------------------1-1-1-1-1-1-1-1-|
E|--1-1-1-1-1-1-1-1----------------------------------------------------|
It's a revolution..

End Solo:

e|---------------------------------------------------|
B|--10-10h11p10--10-10h11p10--10-10h11p10-10---------|
G|-------------------------------------------9-9-10--|
D|---------------------------------------------------|
A|---------------------------------------------------|
E|---------------------------------------------------|

e|----------------------------------------------------------------------------------------------|
B|--10-10h11p10--10-10h11p10--10-10-10\8-8-8-8-8-8-8/11-11-11-10-10-10-10-10-10-10-10-8-8-8-8-8-|
G|----------------------------------------------------------------------------------------------|
D|----------------------------------------------------------------------------------------------|
A|----------------------------------------------------------------------------------------------|
E|----------------------------------------------------------------------------------------------|

e|-----------------------------------------------------------------------------------------------|
B|10-10-10-10-10-10-10-10------------------------------------------------------------------------|
G|------------------------10-10-10-10-10-10-10-10-10-10-10-10-10-10-10-10-12-12-12-12-12-12-12-12|
D|-----------------------------------------------------------------------------------------------|
A|-----------------------------------------------------------------------------------------------|
E|-----------------------------------------------------------------------------------------------|

e|-----------------------------------------------------------------------------------------|
B|--------------------------13b-13b-13b-13b-10-13-13--10-13b-10-13-13--10-8----11-10-8-6---|
G|--14-14-14-14-14-14-14-14-------------------------------------------------10-----------3-|
D|-----------------------------------------------------------------------------------------|
A|-----------------------------------------------------------------------------------------|
G|-----------------------------------------------------------------------------------------|





Comments


Popular Taylor Swift tabs & chords
Breathe 1 Chords
Forever And Always 5 Chords
Long Live 3 Chords
Ours 3 Chords
The Story Of Us 3 Chords
Treacherous 3 Chords
I'm Only Me When I'm With You 1 Tabs
Stay Beautiful Intro Tabs
Safe And Sound Ukulele
Untouchable 2 Ukulele


Song lyrics



↑ Back to top | Tablatures and chords are parodies/interpretations of the original songs. You may use it for private study, scholarship, research or language learning purposes only
© 2014 AZChords.com Contact us | Privacy policy | DMCA | Add/correct tabs | Request tabs | Top 50 tabs