>
 >
Change

Change Bass Tabs

Taylor Swift - Change chords, tabs, tablatures, lyrics

Guitar lessons | Add/correct | Request | Top 50 tabs Artists:  A B C D E F G H I J K L M N O P Q R S T U V W X Y Z 0-9

Change Bass Tabs – Taylor Swift

CD, Sheet music, Poster

Do you like Change? Share with your friends now
Bass TabsBass Tabs v2ChordsChords v2Chords v3Chords v4Chords v5Chords v6Chords v7Chords v8Chords v9TabsUkulele



Tuning: Standard [EADG]


[00:00]

G|---------------|---------------|---------------|---------------|
D|---------------|---------------|---------------|---------------|
A|8-8-8-8-8-8-8-8|7-7-7-7-7-7-7-7|5-5-5-5-5-5-5-5|1-1-1-1-1-1-1-1|
E|---------------|---------------|---------------|---------------|

G|---------------|---------------|---------------|-----------------------|
D|---------------|---------------|---------------|-----------------------|
A|8-8-8-8-8-8-8-8|7-7-7-7-7-7-7-7|5-5-5-5-5-5-5-5|13-13-13-13-13-13-13-12|
E|---------------|---------------|---------------|-----------------------|

[00:20]

Break

[00:30]

G|---------------|---------------|---------------|---------------|
D|---------------|---------------|---------------|---------------|
A|8~-------------|7~-------------|5~-------------|1~-------------|
E|---------------|---------------|---------------|---------------|

G|---------------|---------------|---------------|---------------|
D|---------------|---------------|---------------|---------------|
A|5~-----1~------|3~-------------|1~-------------|3--------------|
E|---------------|---------------|---------------|---------------|

[00:50]

G|---------------|---------------|---------------|---------------|
D|---------------|---------------|---------------|---------------|
A|8-8-8-8-8-8-8-8|7-7-7-7-7-7-7-7|5-5-5-5-5-5-5-5|1-1-1-1-1-1-1-1| x3
E|---------------|---------------|---------------|---------------|

G|---------------|---------------|---------------|---------------|
D|---------------|---------------|---------------|---------------|
A|8~-------------|---------------|---------------|---------------|
E|---------------|---------------|---------------|---------------|

[01:23]

Break

[01:33]

G|---------------|---------------|---------------|---------------|
D|---------------|---------------|---------------|---------------|
A|8-8-8-8-8-8-8-8|7-7-7-7-7-7-7-7|5-5-5-5-5-5-5-5|1-1-1-1-3-3-3-3|
E|---------------|---------------|---------------|---------------|

G|---------------|---------------|---------------|---------------|
D|---------------|---------------|---------------|---------------|
A|5-5-5-5-1-1-1-1|3-3-3-3-3-3-3-3|1-1-1-1-1-1-1-1|3-3-3-3--------|
E|---------------|---------------|---------------|---------------|

[01:53]

G|---------------|---------------|---------------|---------------|
D|---------------|---------------|---------------|---------------|
A|8-8-8-8-8-8-8-8|7-7-7-7-7-7-7-7|5-5-5-5-5-5-5-5|1-1-1-1-1-1-1-1|
E|---------------|---------------|---------------|---------------|

G|---------------|---------------|---------------|-----------------------|
D|---------------|---------------|---------------|-----------------------|
A|8-8-8-8-8-8-8-8|7-7-7-7-7-7-7-7|5-5-5-5-5-5-5-5|13-13-13-13-13-13-13-13|
E|---------------|---------------|---------------|-----------------------|

[02:13]

G|---------------|---------------|---------------|---------------|
D|---------------|---------------|---------------|---------------|
A|8-8-8-8-8-8-8-8|7-7-7-7-7-7-7-7|5-5-5-5-5-5-5-5|1-1-1-1-1-1-1-1|
E|---------------|---------------|---------------|---------------|

[02:23]

G|---------------|---------------|---------------|---------------|
D|---------------|---------------|---------------|---------------|
A|5-5-5-5-5-5-5-5|1-1-1-1-1-1-1-1|8-8-8-8-8-8-8-8|7-7-7-7-7-7-7-7| x2
E|---------------|---------------|---------------|---------------|

[02:43]

G|---------------|---------------|---------------|---------------|
D|---------------|---------------|---------------|---------------|
A|8-8-8-8-8-8-8-8|1-1-1-1-1-1-1-1|5-5-5-5-5-5-5-5|1-1-1-1-1-1-1-1|
E|---------------|---------------|---------------|---------------|

G|---------------|---------------|---------------|---------------|
D|---------------|---------------|---------------|---------------|
A|8-8-8-8-8-8-8-8|1-1-1-1-1-1-1-1|5-5-5-5-5-5-5-5|1~-------------|
E|---------------|---------------|---------------|---------------|

[03:03]

Break

[03:13]

G|---------------|---------------|---------------|---------------|
D|---------------|---------------|---------------|---------------|
A|1--------------|---------------|---------------|---------------|
E|---------------|---------------|---------------|---------------|

[03:15]

G|---------------|---------------|---------------|---------------|
D|---------------|---------------|---------------|---------------|
A|8-8-8-8-8-8-8-8|7-7-7-7-7-7-7-7|5-5-5-5-5-5-5-5|1-1-1-1-1-1-1-1|
E|---------------|---------------|---------------|---------------|

G|---------------|---------------|---------------|-----------------------|
D|---------------|---------------|---------------|-----------------------|
A|8-8-8-8-8-8-8-8|7-7-7-7-7-7-7-7|5-5-5-5-5-5-5-5|13-13-13-13-13-13-13-13|
E|---------------|---------------|---------------|-----------------------|

[03:35]

G|---------------|-----------------------|-----------------------|-----------------------|
D|---------------|-----------------------|-----------------------|-----------------------|
A|8-8-8-8-8-8-8-8|10-10-10-10-10-10-10-10|12-12-12-12-12-12-12-12|13-13-13-13-13-13-13-13|
E|---------------|-----------------------|-----------------------|-----------------------|

G|---------------|---------------|---------------|---------------|
D|---------------|---------------|---------------|---------------|
A|8-8-8-8-8-8-8-8|7-7-7-7-7-7-7-7|5-5-5-5-5-5-5-5|1-1-3-3-5-5-7-7|
E|---------------|---------------|---------------|---------------|

[03:55]

G|---------------|---------------|---------------|---------------|
D|---------------|---------------|---------------|---------------|
A|8-8-8-8-8-8-8-8|7-7-7-7-7-7-7-7|5-5-5-5-5-5-5-5|1-1-1-1-1-1-1-1|
E|---------------|---------------|---------------|---------------|

G|---------------|---------------|---------------|-----------------------|
D|---------------|---------------|---------------|-----------------------|
A|8-8-8-8-8-8-8-8|7-7-7-7-7-7-7-7|5-5-5-5-5-5-5-5|13-13-13-13-13-13-13-13|
E|---------------|---------------|---------------|-----------------------|

[04:15]

G|-----------------------|-----------------------|---------------|---------------|
D|-----------------------|-----------------------|---------------|---------------|
A|15-15-15-15-15-15-15-15|15-15-15-15-15-15-15-15|5-5-5-5-5-5-5-5|1~-------------|
E|-----------------------|-----------------------|---------------|---------------|


Listen the song carefully and you will get it.



| /  slide up
| \  slide down
| h  hammer-on
| p  pull-off
| ~  vibrato
| +  harmonic
| x  Mute note





Comments


Popular Taylor Swift tabs & chords
A Place In This World Chords
American Girl Chords
Change 1 Chords
Dont Hate Me For Loving You Chords
Thug Story Chords
We Are Never Ever Getting Back Together 5 Chords
Youre Not Sorry 4 Chords
Mine 3 Tabs
Youre Not Sorry Tabs
Picture To Burn Ukulele


Song lyrics



↑ Back to top | Tablatures and chords are parodies/interpretations of the original songs. You may use it for private study, scholarship, research or language learning purposes only
© 2014 AZChords.com Contact us | Privacy policy | DMCA | Add/correct tabs | Request tabs | Top 50 tabs