» » »

Taylor James, Fire Are Rain Tabs (ver.1)

Artists:  A B C D E F G H I J K L M N O P Q R S T U V W X Y Z # 

Fire Are Rain Tabs (ver.1)

Taylor James Tabs
 Rating:
4/5 (4 votes)
Fire Are Rain lessons Tabs too difficult? Try these video lessons and learn fast
                Intro
------5--------------3------------0h2--0--2--0--------------0--0--------------
---------5--------------3---------3----3--3--0h2------------3--2p0------------
-4/6--------6---6/4--------4------2----2--2--2-------2------2--2----2---------
------------------------------0-----------------------------------------------
-0-------------------------------------------0-----0---0-0--------------------
----------------0-------------------------------------------------------------
                                                                              
Intro (continued)
-0-------------------------------------------------2------------------3-------
-0h2-----2-----------------------------3------------------3-------------------
-2----2----------1-----1------------0---------------------------0-----------0-
--------------------2-----0------0-----------0--------------------------------
-0-----------0----------------------------------------------------------------
-----------------0------------3-----------3-----3------3-----3-----3-----3----
                                                                              
Riff A
-----------------5-----------------3------------------------------------------
--------6----------------3/4-------------3------------------------------------
-----------------------------------------------4------3-----0-----------------
-0----------------------------------------------------------------------------
-----------------------------------0------------------------------------------
        Just yesterday morning               they let me know                 

Riff A (continued)
------------------------------0----------0----0-----------0-------------------
------------------------------0h2--------0----0h2---------2-------------------
------------3-----------------------2---------------2-------------------------
-0----2-----------------------------------------------------------------------
------------------0-----0-----------------------------------------------------
     you   were  gone.                                          Suzanne the   
Riff A (continued)
--------------------------------------------------2---------------------------
-------------------------------------3----------------3-----------3-----------
--------------0-------------------------------------------------------0-------
--------------1----------------0--------------0---------------0---------------
--------2---------------------------------------------------------------------
--0-----------------------3----------------3------3-------3-------------------
 plans  they  made put an end   to   you.                                     


Riff B
--2----------------2---------0--------------0-----0-----------0---0-----------
--3---2------------3---------0--------------2-----0h2---------0---0h2------0--
--2---2------------2---------1--------------2------------2-------------2---2--
--0---2------------4---------0------------------------------------------------
------4------------2---------2------------------------------------------------
-----------------------------0------------------------------------------------
      I've  seen  fire  and I've seen rain.                                   

Verse One
Riff A:
Just yesterday morning they let me know you were gone.
Suzanne the plans they made put and end to you.
I walked out this morning and I wrote down this song.
I Just can't remember who to send it to.

Chorus
Riff B:
I've seen fire and I've seen rain.
I've seen sunny days that I though would never end.
I've seen loney times when I could not find a friend.
But I always thought that I'd see you again.

Verse 2
Riff A:
Won't you look down upon my Jesus,
You gotta help me make a stand.
You just go to see me through another day.
My body's achin' and my time is at hand.
And I won't make it any other way.

Chorus
Riff B:
I've seen fire and I've seen rain.
I've seen sunny days that I though would never end.
I've seen loney times when I could not find a friend.
But I always thought that I'd see you again.

Verse 3
Riff A
Been walkin' my mind to an easy time,
My back turned toward the sun.
Lord knows when the cold wind blows,
It'll turn your head around.
Well there's hours of time on the telephone line
To talk about things to come.
Sweet dreams and flying machines 
In pieces on the ground.

Chorus
Riff B:
I've seen fire and I've seen rain.
I've seen sunny days that I though would never end.
I've seen loney times when I could not find a friend.
But I always thought that I'd see you again.
            
Submit corrections

comments powered by Disqus
↑ Back to top | Taylor James Tabs for Fire Are Rain. Lyrics for acoustic guitar and electric guitar. Tablatures and chords are parodies/interpretations of the original songs. You may use it for private study, scholarship, research or language learning purposes only