» » »

End Of The Line Tabs (ver.1)

Artists:  A B C D E F G H I J K L M N O P Q R S T U V W X Y Z # 

End Of The Line Tabs (ver.1)

Taylor Hawkins And The Coattail Riders
Rating:
5/5 (1 vote)

Hard to play? Try these video lessons and learn fast.
                This Song Is Track 6 Off Taylor Hawkins And The Coattail Riders

Taylor Hawkins and The Coattail Riders - End Of The Line

Instrument: Guitar
Tuning: eBGDAE



Intro/Verse
             G
e||----------3--3--3--3--3--3--3--3--||
B||----------3--3--3--3--3--3--3--3--||
G||----------0--0--0--0--0--0--0--0--||
D||--0-0-0---0--0--0--0--0--0--0--0--||
A||--3-2-0-2-2--2--2--2--2--2--2--2--||
E||--------3-3--3--3--3--3--3--3--3--||

   Gtr. Lead (The 2 parts that are used throughout)
e||-----------|-----------||
B||-----------|-----------||
G||-----------|-----------||
D||-----------|-----------||
A||--3-2-0----|--0-2-0----||
E||--------3--|--------3--||


Chorus
     C
e||--0-0-0-0-0-0-0-0--6-6-6-6-6-6-6--||
B||--1-1-1-1-1-1-1-1--6-6-6-6-6-6-6--||
G||--0-0-0-0-0-0-0-0--0-0-0-0-0-0-0--||
D||--2-2-2-2-2-2-2-2--5-5-5-5-5-5-5--||
A||--3-3-3-3-3-3-3-3--5-5-5-5-5-5-5--||
E||----------------------------------||


Interlude (overdrive load of sustain)
   right pan
e||------------------------------||
B||--15--12\18--12--17-15-13-12--||
G||------------------------------||
D||------------------------------||
A||------------------------------||
E||------------------------------||

   left pan
e||-----------------------------------------||
B||--15-13--12--12--------10-12-10----------||
G||----------------12--12----------12~~~~\--||
D||-----------------------------------------||
A||-----------------------------------------||
E||-----------------------------------------||


Bridge
     G                      C
e||--3-3-3-3-3-3-3-3-3-3-3--0-0-0-0-0-0-0-0-0-0-0--||
B||--3-3-3-3-3-3-3-3-3-3-3--1-1-1-1-1-1-1-1-1-1-1--||
G||--0-0-0-0-0-0-0-0-0-0-0--0-0-0-0-0-0-0-0-0-0-0--|| (twice)
D||--0-0-0-0-0-0-0-0-0-0-0--2-2-2-2-2-2-2-2-2-2-2--||
A||--2-2-2-2-2-2-2-2-2-2-3--3-3-3-3-3-3-3-3-3-3-3--||
E||--3-3-3-3-3-3-3-3-3-3-3-------------------------||
   "I don't want to see you with someone else"
   "I don't want to see you alone"

     F
e||--1-1-1-1-1-1-1-1-1-1-1--||
B||--1-1-1-1-1-1-1-1-1-1-1--||
G||--2-2-2-2-2-2-2-2-2-2-2--||
D||--3-3-3-3-3-3-3-3-3-3-3--||
A||--3-3-3-3-3-3-3-3-3-3-3--||
E||--1-1-1-1-1-1-1-1-1-1-1--||
   "Did you heart deceive you"

     Fm
e||--1-1-1-1-1-1-1-1-1-1-1--||
B||--1-1-1-1-1-1-1-1-1-1-1--||
G||--1-1-1-1-1-1-1-1-1-1-1--||
D||--3-3-3-3-3-3-3-3-3-3-3--||
A||--3-3-3-3-3-3-3-3-3-3-3--||
E||--1-1-1-1-1-1-1-1-1-1-1--||
   "Did you open up, just to let me go"

     C
e||--0-0-0-0-0-0-0-0-0-0-0--||
B||--1-1-1-1-1-1-1-1-1-1-1--||
G||--0-0-0-0-0-0-0-0-0-0-0--||
D||--2-2-2-2-2-2-2-2-2-2-2--||
A||--3-3-3-3-3-3-3-3-3-3-3--||
E||-------------------------||


Outro
     G
e||-------3--||
B||------3---||
G||-----0----||
D||----0-----||
A||---2------||
E||--3-------||
            
Hard to play? Try these video lessons and learn fast. | Correct




comments powered by Disqus
↑ Back to top | Tablatures and chords are parodies/interpretations of the original songs. You may use it for private study, scholarship, research or language learning purposes only