» » »

T.A.T.U, Vremya Luni Tabs (ver.1)

Artists:  A B C D E F G H I J K L M N O P Q R S T U V W X Y Z # 

Vremya Luni Tabs (ver.1)

T.A.T.U Tabs
 Rating:
4/5 (4 votes)
Vremya Luni lessons Tabs too difficult? Try these video lessons and learn fast
                    


      VERSO (REPITE 2 VECES)

e|------------------------------------------------------------------------|
B|------------------------------------------------------------------------|
G|----------------------------------5-5-5-5-5-5-5-5-----------------------| 
D|--7-7-7-7-7-7-7-7-7-7-7-7-7-7-7-7-5-5-5-5-5-5-5-5-6-6-6-6-6-6-6-6-------| 
A|--7-7-7-7-7-7-7-7-7-7-7-7-7-7-7-7-3-3-3-3-3-3-3-3-6-6-6-6-6-6-6-6-------|
E|--5-5-5-5-5-5-5-5-5-5-5-5-5-5-5-5-----------------4-4-4-4-4-4-4-4-------|


e|------------------------------------------------------------------------|
B|------------------------------------------------------------------------|
G|----------------------------------5-5-5-5-5-5-5-5-----------------------| 
D|--7-7-7-7-7-7-7-7-7-7-7-7-7-7-7-7-5-5-5-5-5-5-5-5-6-6-6-6-6-6-6-6-------| 
A|--7-7-7-7-7-7-7-7-7-7-7-7-7-7-7-7-3-3-3-3-3-3-3-3-6-6-6-6-6-6-6-6-------|
E|--5-5-5-5-5-5-5-5-5-5-5-5-5-5-5-5-----------------4-4-4-4-4-4-4-4-------|

      INTRO:

e|------------------------------------------------------|
B|------------------------------------------------------|
G|-----------------5-------------------4----------------| 
D|--7-X-7--7-X-7-X---6-xx-6--6-xx-6--x------------------| 
A|--7-X-7--7-X-7-X---6-xx-6--6-xx-6--x------------------|
E|--5-X-5--5-X-5-----4-xx-4--4-xx-4--x------------------|

e|------------------------------------------------------|
B|------------------------------------------------------|
G|-----------------5-------------------4----------------| 
D|--7-X-7--7-X-7-X---6-xx-6--6-xx-6--x------------------| 
A|--7-X-7--7-X-7-X---6-xx-6--6-xx-6--x------------------|
E|--5-X-5--5-X-5-----4-xx-4--4-xx-4--x------------------|



    CORO:


e|------------------------------------------------------------------------|
B|------------------------------------------------------------------------|
G|----------------------------------5-5-5-5-5-5-5-5-5-5-5-5-5-5-5-5-------| 
D|--7-7-7-7-7-7-7-7-7-7-7-7-7-7-7-7-5-5-5-5-5-5-5-5-5-5-5-5-5-5-5-5-------| 
A|--7-7-7-7-7-7-7-7-7-7-7-7-7-7-7-7-3-3-3-3-3-3-3-3-3-3-3-3-3-3-3-3-------|
E|--5-5-5-5-5-5-5-5-5-5-5-5-5-5-5-5---------------------------------------|

e|------------------------------------------------------------------------|
B|------------------------------------------------------------------------|
G|--7-7-7-7-7-7-7-7-7-7-7-7-7-7-7-7---------------------------------------| 
D|--7-7-7-7-7-7-7-7-7-7-7-7-7-7-7-7-3-3-3-3-3-3-3-3-2-2-2-2-2-2-2-2-------| 
A|--5-5-5-5-5-5-5-5-5-5-5-5-5-5-5-5-3-3-3-3-3-3-3-3-2-2-2-2-2-2-2-2-------|
E|----------------------------------1-1-1-1-1-1-1-1-0-0-0-0-0-0-0-0-------|


e|------------------------------------------------------------------------|
B|------------------------------------------------------------------------|
G|----------------------------------5-5-5-5-5-5-5-5-5-5-5-5-5-5-5-5-------| 
D|--7-7-7-7-7-7-7-7-7-7-7-7-7-7-7-7-5-5-5-5-5-5-5-5-5-5-5-5-5-5-5-5-------| 
A|--7-7-7-7-7-7-7-7-7-7-7-7-7-7-7-7-3-3-3-3-3-3-3-3-3-3-3-3-3-3-3-3-------|
E|--5-5-5-5-5-5-5-5-5-5-5-5-5-5-5-5---------------------------------------|


e|------------------------------------------------------------------------|
B|------------------------------------------------------------------------|
G|--7-7-7-7-7-7-7-7-7-7-7-7-7-7-7-7---------------------------------------| 
D|--7-7-7-7-7-7-7-7-7-7-7-7-7-7-7-7-3-3-3-3-3-3-3-3-2-2-2-2-2-2-2-2-------| 
A|--5-5-5-5-5-5-5-5-5-5-5-5-5-5-5-5-3-3-3-3-3-3-3-3-2-2-2-2-2-2-2-2-------|
E|----------------------------------1-1-1-1-1-1-1-1-0-0-0-0-0-0-0-0-------|




      VERSO (REPITE 2 VECES)

e|------------------------------------------------------------------------|
B|------------------------------------------------------------------------|
G|----------------------------------5-5-5-5-5-5-5-5-----------------------| 
D|--7-7-7-7-7-7-7-7-7-7-7-7-7-7-7-7-5-5-5-5-5-5-5-5-6-6-6-6-6-6-6-6-------| 
A|--7-7-7-7-7-7-7-7-7-7-7-7-7-7-7-7-3-3-3-3-3-3-3-3-6-6-6-6-6-6-6-6-------|
E|--5-5-5-5-5-5-5-5-5-5-5-5-5-5-5-5-----------------4-4-4-4-4-4-4-4-------|


e|------------------------------------------------------------------------|
B|------------------------------------------------------------------------|
G|----------------------------------5-5-5-5-5-5-5-5-----------------------| 
D|--7-7-7-7-7-7-7-7-7-7-7-7-7-7-7-7-5-5-5-5-5-5-5-5-6-6-6-6-6-6-6-6-------| 
A|--7-7-7-7-7-7-7-7-7-7-7-7-7-7-7-7-3-3-3-3-3-3-3-3-6-6-6-6-6-6-6-6-------|
E|--5-5-5-5-5-5-5-5-5-5-5-5-5-5-5-5-----------------4-4-4-4-4-4-4-4-------|



e|------------------------------------------------------------------------|
B|------------------------------------------------------------------------|
G|-----------------------------------5------------------------------------| 
D|---7//v////h/////-----(6)-(7)---7-----6-7-------------------------------| 
A|------------------------------------------------------------------------|
E|------------------------------------------------------------------------|




    CORO:


e|------------------------------------------------------------------------|
B|------------------------------------------------------------------------|
G|----------------------------------5-5-5-5-5-5-5-5-5-5-5-5-5-5-5-5-------| 
D|--7-7-7-7-7-7-7-7-7-7-7-7-7-7-7-7-5-5-5-5-5-5-5-5-5-5-5-5-5-5-5-5-------| 
A|--7-7-7-7-7-7-7-7-7-7-7-7-7-7-7-7-3-3-3-3-3-3-3-3-3-3-3-3-3-3-3-3-------|
E|--5-5-5-5-5-5-5-5-5-5-5-5-5-5-5-5---------------------------------------|

e|------------------------------------------------------------------------|
B|------------------------------------------------------------------------|
G|--7-7-7-7-7-7-7-7-7-7-7-7-7-7-7-7---------------------------------------| 
D|--7-7-7-7-7-7-7-7-7-7-7-7-7-7-7-7-3-3-3-3-3-3-3-3-2-2-2-2-2-2-2-2-------| 
A|--5-5-5-5-5-5-5-5-5-5-5-5-5-5-5-5-3-3-3-3-3-3-3-3-2-2-2-2-2-2-2-2-------|
E|----------------------------------1-1-1-1-1-1-1-1-0-0-0-0-0-0-0-0-------|


e|------------------------------------------------------------------------|
B|------------------------------------------------------------------------|
G|----------------------------------5-5-5-5-5-5-5-5-5-5-5-5-5-5-5-5-------| 
D|--7-7-7-7-7-7-7-7-7-7-7-7-7-7-7-7-5-5-5-5-5-5-5-5-5-5-5-5-5-5-5-5-------| 
A|--7-7-7-7-7-7-7-7-7-7-7-7-7-7-7-7-3-3-3-3-3-3-3-3-3-3-3-3-3-3-3-3-------|
E|--5-5-5-5-5-5-5-5-5-5-5-5-5-5-5-5---------------------------------------|


e|------------------------------------------------------------------------|
B|------------------------------------------------------------------------|
G|--7-7-7-7-7-7-7-7-7-7-7-7-7-7-7-7---------------------------------------| 
D|--7-7-7-7-7-7-7-7-7-7-7-7-7-7-7-7-3-3-3-3-3-3-3-3-2-2-2-2-2-2-2-2-------| 
A|--5-5-5-5-5-5-5-5-5-5-5-5-5-5-5-5-3-3-3-3-3-3-3-3-2-2-2-2-2-2-2-2-------|
E|----------------------------------1-1-1-1-1-1-1-1-0-0-0-0-0-0-0-0-------|


      VERSO (REPITE 2 VECES)

e|------------------------------------------------------------------------|
B|------------------------------------------------------------------------|
G|----------------------------------5-5-5-5-5-5-5-5-----------------------| 
D|--7-7-7-7-7-7-7-7-7-7-7-7-7-7-7-7-5-5-5-5-5-5-5-5-6-6-6-6-6-6-6-6-------| 
A|--7-7-7-7-7-7-7-7-7-7-7-7-7-7-7-7-3-3-3-3-3-3-3-3-6-6-6-6-6-6-6-6-------|
E|--5-5-5-5-5-5-5-5-5-5-5-5-5-5-5-5-----------------4-4-4-4-4-4-4-4-------|


e|------------------------------------------------------------------------|
B|------------------------------------------------------------------------|
G|----------------------------------5-5-5-5-5-5-5-5-----------------------| 
D|--7-7-7-7-7-7-7-7-7-7-7-7-7-7-7-7-5-5-5-5-5-5-5-5-6-6-6-6-6-6-6-6-------| 
A|--7-7-7-7-7-7-7-7-7-7-7-7-7-7-7-7-3-3-3-3-3-3-3-3-6-6-6-6-6-6-6-6-------|
E|--5-5-5-5-5-5-5-5-5-5-5-5-5-5-5-5-----------------4-4-4-4-4-4-4-4-------|

e|------------------------------------------------------------------------|
B|------------------------------------------------------------------------|
G|------------------------------------------------------------------------| 
D|--7//-7-7-7-7-7-7-7-----------------------------------------------------| 
A|--7//-7-7-7-7-7-7-7-----------------------------------------------------|
E|--5//-5-5-5-5-5-5-5-----------------------------------------------------|
            
Submit corrections

comments powered by Disqus
↑ Back to top | T.A.T.U Tabs for Vremya Luni. Lyrics for acoustic guitar and electric guitar. Tablatures and chords are parodies/interpretations of the original songs. You may use it for private study, scholarship, research or language learning purposes only