» » »

T.A.T.U, Running Blind Tabs (ver.1)

Artists:  A B C D E F G H I J K L M N O P Q R S T U V W X Y Z # 

Running Blind Tabs (ver.1)

T.A.T.U Tabs
 Rating:
4/5 (4 votes)
Running Blind lessons Tabs too difficult? Try these video lessons and learn fast
                t.A.T.u. – RUNNING BLIND (TRANSFORMER REMIX)
********************************************

Day Tabbed= 05.06.10
Please mail me for anything concerning the tab 

Standard Tuning 

INTRO (2 times)
e-----------------------------------------------------------------------|  
B--4-4-4-4-4-4-4-4--6-6-6-6-7-7-6-6---4-4-4-4-4-4-4-4--6-6-6-6-7-7-6-6--| 
G--4-4-4-4-4-4-4-4--6-6-6-6-6-6-6-6---3-3-3-3-3-3-3-3--6-6-6-6-6-6-6-6--| 
D-----------------------------------------------------------------------
A-----------------------------------------------------------------------| 
E-----------------------------------------------------------------------|  
p.m. . . . . . . .  . . . . . . . .   . . . . . . . .  . . . . . . . . 



BRIDGE
e-----------------------------------------------------------------------|  
B—-4-4-4-4-4-4-4-4-4-4-4-4—-4-4-4-4-4-4-4-4—-2-2-2-2-2-2-2-2------------| 
G--4-4-4-4-4-4-4-4-4-4-4-4--3-3-3-3-3-3-3-3--1-1-1-1-1-1-1-1------------| 
D-----------------------------------------------------------------------|
A-----------------------------------------------------------------------| 
E-----------------------------------------------------------------------| 
p.m. . . . . . . . . . . .  . . . . . . . .  . . . . . . . .

e--------------------------------------|  
B--4-4-4-4-4-4-4-4-4-4-4-4------4~-----| 
G--4-4-4-4-4-4-4-4-4-4-4-4------3~-----| 
D--------------------------------------|
A--------------------------------------| 
E--------------------------------------| 
p.m. . . . . . . . . . . .



CHORUS
e-----------------------------------------------------------------------|  
B-----------------------------------------------------------------------| 
G-------------------------------------8-8-8-8-8-8-8-8---6-6-6-6-6-6-6---| 
D--6-6-6-6-6-6-6-6\-9-9-9-9-9-9-9-9---9-9-9-9-9-9-9-9---6-6-6-6-6-6-6---|
A--6-6-6-6-6-6-6-6\-9-9-9-9-9-9-9-9---6-6-6-6-6-6-6-6---4-4-4-4-4-4-4---| 
E-----------------------------------------------------------------------|

e------------------------------------1-1-1-1-1-1-1-1---1-1-1-1-1-1-1-1--|  
B------------------------------------4-4-4-4-4-4-4-4---2-2-2-2-2-2-2-2--| 
G--4-4-4-4-4-4-4-4-4-4-4-4-4-4-4-4---3-3-3-3-3-3-3-3---3-3-3-3-3-3-3-3--| 
D--4-4-4-4-4-4-4-4-4-4-4-4-4-4-4-4---1-1-1-1-1-1-1-1---1-1-1-1-1-1-1-1--|
A--2-2-2-2-2-2-2-2-2-2-2-2-2-2-2-2--------------------------------------| 
E-----------------------------------------------------------------------|



AFTER CHORUS
e---11-11----------13-13----------14-14---------------------9-9---------|  
B---------11-11-11-------11-11-11-------11-11-11----—9h11p9-----12------| 
G-----------------------------------------------------------------------| 
D-----------------------------------------------------------------------|
A-----------------------------------------------------------------------| 
E-----------------------------------------------------------------------| 

e---11-11----------13-13------------------------------------------------|  
B---------11-11-11-------11-11-11------—9-11-9-11-9-11-9-11-------------| 
G-----------------------------------------------------------------------| 
D-----------------------------------------------------------------------|
A-----------------------------------------------------------------------| 
E-----------------------------------------------------------------------|


 Tablature Explanation 
*********************** 
p.m.= palm mute
   \= slide
   ~ = hold
            
Submit corrections

comments powered by Disqus
↑ Back to top | T.A.T.U Tabs for Running Blind. Lyrics for acoustic guitar and electric guitar. Tablatures and chords are parodies/interpretations of the original songs. You may use it for private study, scholarship, research or language learning purposes only