>
 >
Not Gonna Get Us Chorus

Not Gonna Get Us Chorus Guitar Tabs

T.A.T.U - Not Gonna Get Us Chorus chords, tabs, tablatures, lyrics

Guitar lessons | Add/correct | Request | Top 50 tabs Artists:  A B C D E F G H I J K L M N O P Q R S T U V W X Y Z 0-9

Not Gonna Get Us Chorus Guitar Tabs – T.A.T.U

CD, Sheet music, Poster

Do you like Not Gonna Get Us Chorus? Share with your friends now
Tabs
E||---12-12-11-12-14-----11-12-12-11-12-9----
B||---------------------------------
G||---------------------------
D||---------------------
A||----------------
E||-----------

E||---12-12-11-12-14-----11-12-12-11-12-9----
B||---------------------------------
G||---------------------------
D||---------------------
A||----------------
E||-----------

E||---12-12-11-12-14-----11-12-12-11-12-9----
B||---------------------------------
G||---------------------------
D||---------------------
A||----------------
E||-----------

E||---12-12-11-12-14-----11-12-12-11-12-9----
B||---------------------------------
G||---------------------------
D||---------------------
A||----------------
E||-----------

Just repeat until you get a sleep...

It's my first tab, and it's not that good... LoL!





Comments


Popular T.A.T.U tabs & chords
Gomenasai Chords
How Soon Is Now? Chords
Not Gonna Get Us Chords
All About Us Tabs
Not Gonna Get Us Tabs
Sacrifice Tabs
Sacrifice Intro 1 Tabs
Show Me Love Tabs
Little People Ukulele
Malchik Gay Ukulele


Song lyrics



↑ Back to top | Tablatures and chords are parodies/interpretations of the original songs. You may use it for private study, scholarship, research or language learning purposes only
© 2014 AZChords.com Contact us | Privacy policy | DMCA | Add/correct tabs | Request tabs | Top 50 tabs