» » »

T.A.T.U, Not Gonna Get Us Tabs (ver.3)

Artists:  A B C D E F G H I J K L M N O P Q R S T U V W X Y Z # 

Not Gonna Get Us Tabs (ver.3)

T.A.T.U Tabs
 Rating:
4/5 (4 votes)
Not Gonna Get Us lessons Tabs too difficult? Try these video lessons and learn fast
1
                Not Gonna Get Us
Tatu

Tuning: Standard

Intro
    Not gonna get us!
e|--12---12--11-12-9---|
B|---------------------|
G|---------------------|
D|---------------------|
A|---------------------|
E|---------------------|

Chorus
e|-------------------------------------------------------|
B|-------------------------------------------------------|
G|----------------------------7--(7)--(7)----------------|
D|--8--(8)--(8)--7--(7)--(7)--7--(7)--(7)--3--(3)--(3)---|
A|--8--(8)--(8)--7--(7)--(7)--5--(5)--(5)--3--(3)--(3)---|
E|--6--(6)--(6)--5--(5)--(5)---------------1--(1)--(1)---|

Verse
e|---------------------------------------------------------|
B|---------------------------------------------------10-9--|
G|--9--9-8-9----9--9-8-9-11-(x3)--9--9-8-9----9--9-8-------|
D|---------------------------------------------------------|
A|---------------------------------------------------------|
E|---------------------------------------------------------|

Chorus
e|------------------------------11----12--12-11-12-9--|
B|--10--10-9-10---10-10-10-9-10-----------------------|
G|----------------------------------------------------|
D|----------------------------------------------------|
A|----------------------------------------------------|
E|----------------------------------------------------|

Bridge (keyboard)
e|--9-(x8)--11-(x8)--12-(x8)--14-(x8)---|
B|--------------------------------------|
G|--------------------------------------|
D|--------------------------------------|
A|--------------------------------------|
E|--------------------------------------|

Verse
e|------------------------------11------------------------10----|
B|--10--10-9-10---10-10-10-9-10------9--9-8-9---9-9-9-8-9-------|
G|--------------------------------------------------------------|
D|--------------------------------------------------------------|
A|--------------------------------------------------------------|
E|--------------------------------------------------------------|

Bridge
e|--12--12-11-14-12---|
B|--------------------|
G|--------------------|
D|--------------------|
A|--------------------|
E|--------------------|

e|--12---12--11-12-9---|
B|---------------------|
G|---------------------|
D|---------------------|
A|---------------------|
E|---------------------|

e|--12--12-11-14-12---|
B|--------------------|
G|--------------------|
D|--------------------|
A|--------------------|
E|--------------------|

Chorus
e|------------------------------11----12--12-11-12-9--|
B|--10--10-9-10---10-10-10-9-10-----------------------|
G|----------------------------------------------------|
D|----------------------------------------------------|
A|----------------------------------------------------|
E|----------------------------------------------------|

Outro
e|--12---12--11-12-9---|
B|---------------------|
G|---------------------|
D|---------------------|
A|---------------------|
E|---------------------|

There it is, have fun with it
            
Submit corrections

comments powered by Disqus
↑ Back to top | T.A.T.U Tabs for Not Gonna Get Us. Lyrics for acoustic guitar and electric guitar. 1 Tablatures and chords are parodies/interpretations of the original songs. You may use it for private study, scholarship, research or language learning purposes only