» » »

Friend Or Foe Tabs (ver.2)

Artists:  A B C D E F G H I J K L M N O P Q R S T U V W X Y Z # 

Friend Or Foe Tabs (ver.2)

T.A.T.U
Rating:
0/5 (0 votes)

Hard to play? Try these video lessons and learn fast.
                
T.A.t.U. FRIEND OR FOE
********************************* 

Day Tabbed=14.08.06
Please mail me for anything concerning the tab  
~
1/2 Step Down 
    
      VERSE (use chorus effect)                       CHORUS 
e |-----------------------------------/-----------/-------------------------| 
B |-----------------------------------/-----------/-------------------------| 
G |------------4~---------------------/--6---9----/---11----6----9----------|  
D |---------6---------------4~--------/--6---9----/---11----6----9----9-----| 
A |------6---------------4------------/--4---7----/---9-----4----7----9-----|  
E |---4---------------2---------------/-----------/-------------------7-----| 


      BREAK  ( 1:19 )            SOLO (guitar and keyboard)  ( 1:37 )
e |-------------------------/------------------------------------------------------------------|
B |-------------------------/---7-7-9-10-9~--9-9-10--12-12~---12-12--10-9-7~---7-7/10/5/7~-----|
G |-------------------------/------------------------------------------------------------------|
D |-------------------------/------------------------------------------------------------------|
A |---9----9-9/-7-/-9-9-----/------------------------------------------------------------------|
E |---7----7-7/-5-/-7-7-----/------------------------------------------------------------------| 


e |-----------------------------------------------------|
B |-7-7-9-10-9~--9-9-10--12-12~---12-12--10-9-7~--------|
G |-----------------------------------------------------|
D |-----------------------------------------------------|
A |-----------------------------------------------------|
E |-----------------------------------------------------| 


Tablature Explanation 
*********************** 

~ = vibrato 
/ = slide 
            
Hard to play? Try these video lessons and learn fast. | Correct




comments powered by Disqus
↑ Back to top | Tablatures and chords are parodies/interpretations of the original songs. You may use it for private study, scholarship, research or language learning purposes only