» » »

T.A.T.U, Dangerous And Moving Tabs (ver.1)

Artists:  A B C D E F G H I J K L M N O P Q R S T U V W X Y Z # 

Dangerous And Moving Tabs (ver.1)

T.A.T.U Tabs
 Rating:
4/5 (4 votes)
Dangerous And Moving lessons Tabs too difficult? Try these video lessons and learn fast
                t.A.t.u. DANGEROUS AND MOVING
*********************************

Day Tabbed= 19.08.06
Please mail me for anything concerning the tab

1/2 step down

     INTRO
e |------------------------------------------------------------/--------------------------------------------------------|
B |--7--7-7-7-7--9--9-9-9-9--10--10-10-10-10--12--12-12-12-12--/--14--14-14-14-14--15--15-15-15-15--17--17--17-17-17----|
G |--x---------------------------------------------------------/--------------------------------------------------------|
D |--0---------------------------------------------------------/--------------------------------------------------------|
A |------------------------------------------------------------/--------------------------------------------------------|
E |------------------------------------------------------------/--------------------------------------------------------|
                              x 2

e |--------------------/-----------------------------------------------------17-16~-(16)-17-16~-(16)-17-16~-(16)-17-16~-|
B |--19--19-19-19-19---/--14--14-14-14-14--15--15-15-15-15--17--17-17-17-17---------------------------------------------|
G |--------------------/------------------------------------------------------------------------------------------------|
D |--------------------/------------------------------------------------------------------------------------------------|
A |--------------------/------------------------------------------------------------------------------------------------|
E |--------------------/------------------------------------------------------------------------------------------------|

                                                                 VERSE
e |-(16)--(16)-(16)----16/8-(delay)-(16/8)--(16/8)---(16/8)---/---------------------------------------------------------|
B |-----------------------------------------------------------/----------------------10---------------9---------------7-|
G |-----------------------------------------------------------/--------------11-----------------9---------------7-------|
D |-----------------------------------------------------------/----------11------11----------9-----9---------7-----7----|
A |-----------------------------------------------------------/-------9-------------------7---------------5-------------|
E |-----------------------------------------------------------/---------------------------------------------------------|

                         AFTER VERSE ( 1:02 )                                            
     CHORUS
e |--------------4----/----------------------------------------------------------------4~---/----------------------------|
B |-------------------/---------------10~---------------9~---------------5~-----------------/----------------------------|
G |--------6----------/---------------------------9------------------------------6----------/----7----6-----11-----9-----|
D |-----6-----6-------/-----------11-----------9-----9----------------5-------------6-------/----7----6-----11-----9-----|
A |--4----------------/--------9------------7----------------------5----------4-------------/----5----4-----9------7-----|
E |-------------------/--(0)?--------------------------------(0)?---------------------------/----------------------------|

    SCRATCH (2:11)                   SOLO
e |-------X-------/------------------------------------------------------------------------------------------------------|
B |-------X-------/---------1/2--------------------1/2-------------------------1/2-----------------1/2-----------14------|
G |-------X-------/---13---13b(14)--13--11~---13--13b(14)--13--11~---14--16---14b(16)--13~---13---13b(14)--11~-----------|
D |-------X-------/------------------------------------------------------------------------------------------------------|
A |-------X-------/------------------------------------------------------------------------------------------------------|
E |-------X-------/------------------------------------------------------------------------------------------------------|

                                                                                         
    ( 3:18 )
e |---1/2----------------------1/2--------------------1/2---------------1/2------------/---------------------------------|
B |--14b(15)--14~--------14---14b(15)--14~-------14--14b(15)--------14--14b(15)--------/--14-15-14-15-14-15-14-15-14-15--|
G |---------------13~----------------------13~----------------13~----------------13~---/---------------------------------|
D |------------------------------------------------------------------------------------/---------------------------------|
A |------------------------------------------------------------------------------------/---------------------------------|
E 
                                                                                                    X 2
                                                                                         
          X 2
     GUITAR RHYTHM ON THE SOLO                      ( 3:18 )
e |--------------------------------------------/------------------|
B |--------------------------------------------/------------------|
G |--------------------------------------------/------------------|
D |--------------------------------------------/------------------|
A |--2----2-2----0--2--2----2-2--0--0----------/---0-2-2----2-0---|
E |--2----2-2----0--2--2----2-2--0--0----------/---0-2-2----2-0---|
P.M. .    . .    .  .  .    . .  .  .              . . .    . .


Tablature Explanation
***********************
P.M. = palm mute
   x = scratch
   b = bending
 1/2 = pitch of the bend
   ~ = vibrato
            
Submit corrections

comments powered by Disqus
↑ Back to top | T.A.T.U Tabs for Dangerous And Moving. Lyrics for acoustic guitar and electric guitar. Tablatures and chords are parodies/interpretations of the original songs. You may use it for private study, scholarship, research or language learning purposes only