» » »

Beliy Plaschik Tabs (ver.1)

Artists:  A B C D E F G H I J K L M N O P Q R S T U V W X Y Z # 

Beliy Plaschik Tabs (ver.1)

T.A.T.U
Rating:
0/5 (0 votes)

Hard to play? Try these video lessons and learn fast.
                
          INTRO:
 

e|--------------10-----------------------10-------------------------------|
B|--13----11-13-------11-----13-13-11-13-------11-------------------------|
G|-----12----------12----12-----------------12----12----------------------| 
D|------------------------------------------------------------------------| 
A|------------------------------------------------------------------------|
E|------------------------------------------------------------------------|



e|--------------10----------11-11-------10--------------------------------|
B|--13----11-13-------11----------11-13-------11--------------------------|
G|-----12----------12----12----------------12----12-----------------------| 
D|------------------------------------------------------------------------| 
A|------------------------------------------------------------------------|
E|------------------------------------------------------------------------|

      ACOMPAÑAMIENTO INTRO:

e|------------------------------------------------------------------------|
B|------------------------------------------------------------------------|
G|--5-5-5-5-5-5-5-x-x-5-5-5-5-5-5-5---------------------------------------| 
D|--5-5-5-5-5-5-5-x-x-5-5-5-5-5-5-5-x-x-6-6-6-6-6-6-6-x-x-3-3-3-3-3-3-3---| 
A|--3-3-3-3-3-3-3-x-x-3-3-3-3-3-3-3-x-x-6-6-6-6-6-6-6-x-x-3-3-3-3-3-3-3---|
E|----------------------------------x-x-4-4-4-4-4-4-4-x-x-1-1-1-1-1-1-1---|


e|------------------------------------------------------------------------|
B|------------------------------------------------------------------------|
G|--5-5-5-5-5-5-5-x-x-5-5-5-5-5-5-5---------------------------------------| 
D|--5-5-5-5-5-5-5-x-x-5-5-5-5-5-5-5-x-x-6-6-6-6-6-6-6-x-x-3-3-3-3-3-3-3---| 
A|--3-3-3-3-3-3-3-x-x-3-3-3-3-3-3-3-x-x-6-6-6-6-6-6-6-x-x-3-3-3-3-3-3-3---|
E|----------------------------------x-x-4-4-4-4-4-4-4-x-x-1-1-1-1-1-1-1---|





   VERSO: (REPITE 4 VECES)

e|-----------8-8------------------------------8-8-------------------------|
B|-----------------------8-8------------------------------8-8-------------|
G|---5-5-5-5-----5-5-5-5-5-5-5-5-5-5--5-5-5-5-----5-5-5-5-5-5-5-5-5-5-----| 
D|------------------------------------------------------------------------| 
A|------------------------------------------------------------------------|
E|------------------------------------------------------------------------|
  pm........     .......     .......  .......     ........    ........ 


e|------------------------------------------------------------------------|
B|-----------9-9------------------------------------------6-6-------------|
G|-----------------------8-8------------------5-5-------------------------| 
D|---6-6-6-6-----6-6-6-6-----6-6-6-6--3-3-3-3-----3-3-3-3-----3-3-3-3-----| 
A|------------------------------------------------------------------------|
E|------------------------------------------------------------------------|
 pm ........     .......     .......  .......     .......     .......



      INTRO AL CORO:    

e|------------------------------------------------------------------------|
B|------------------------------------------------------------------------|
G|------------------------------------------------------------------------| 
D|---5-///////////////-8-///////////////----------------------------------| 
A|---5-//////////////--8-//////////////-----------------------------------|
E|---3-/////////////---6-/////////////------------------------------------|


      

          CORO (REPITE 2 VECES)


e|------------------------------------------------------------------------|
B|------------------------------------------------------------------------|
G|--5-5-5-5-5-5-5-5-5-5-5-5-5-5-5-5---------------------------------------| 
D|--5-5-5-5-5-5-5-5-5-5-5-5-5-5-5-5-6-6-6-6-6-6-6-6-6-3-3-3-3-3-3-3-3-3---| 
A|--3-3-3-3-3-3-3-3-3-3-3-3-3-3-3-3-6-6-6-6-6-6-6-6-6-3-3-3-3-3-3-3-3-3---|
E|----------------------------------4-4-4-4-4-4-4-4-4-1-1-1-1-1-1-1-1-1---|



e|------------------------------------------------------------------------|
B|------------------------------------------------------------------------|
G|--5-5-5-5-5-5-5-5-5-5-5-5-5-5-5-5---------------------------------------| 
D|--5-5-5-5-5-5-5-5-5-5-5-5-5-5-5-5-6-6-6-6-6-6-6-6-6-3-3-3-3-3-3-3-3-3---| 
A|--3-3-3-3-3-3-3-3-3-3-3-3-3-3-3-3-6-6-6-6-6-6-6-6-6-3-3-3-3-3-3-3-3-3---|
E|----------------------------------4-4-4-4-4-4-4-4-4-1-1-1-1-1-1-1-1-1---|





   VERSO: (REPITE 4 VECES)


e|-----------8-8------------------------------8-8-------------------------|
B|-----------------------8-8------------------------------8-8-------------|
G|---5-5-5-5-----5-5-5-5-5-5-5-5-5-5--5-5-5-5-----5-5-5-5-5-5-5-5-5-5-----| 
D|------------------------------------------------------------------------| 
A|------------------------------------------------------------------------|
E|------------------------------------------------------------------------|
  pm........     .......     .......  .......     ........    ........ 


e|------------------------------------------------------------------------|
B|-----------9-9------------------------------------------6-6-------------|
G|-----------------------8-8------------------5-5-------------------------| 
D|---6-6-6-6-----6-6-6-6-----6-6-6-6--3-3-3-3-----3-3-3-3-----3-3-3-3-----| 
A|------------------------------------------------------------------------|
E|------------------------------------------------------------------------|
 pm ........     .......     .......  .......     .......     .......





 
          CORO (REPITE 2 VECES)


e|------------------------------------------------------------------------|
B|------------------------------------------------------------------------|
G|--5-5-5-5-5-5-5-5-5-5-5-5-5-5-5-5---------------------------------------| 
D|--5-5-5-5-5-5-5-5-5-5-5-5-5-5-5-5-6-6-6-6-6-6-6-6-6-3-3-3-3-3-3-3-3-3---| 
A|--3-3-3-3-3-3-3-3-3-3-3-3-3-3-3-3-6-6-6-6-6-6-6-6-6-3-3-3-3-3-3-3-3-3---|
E|----------------------------------4-4-4-4-4-4-4-4-4-1-1-1-1-1-1-1-1-1---|



e|------------------------------------------------------------------------|
B|------------------------------------------------------------------------|
G|--5-5-5-5-5-5-5-5-5-5-5-5-5-5-5-5---------------------------------------| 
D|--5-5-5-5-5-5-5-5-5-5-5-5-5-5-5-5-6-6-6-6-6-6-6-6-6-3-3-3-3-3-3-3-3-3---| 
A|--3-3-3-3-3-3-3-3-3-3-3-3-3-3-3-3-6-6-6-6-6-6-6-6-6-3-3-3-3-3-3-3-3-3---|
E|----------------------------------4-4-4-4-4-4-4-4-4-1-1-1-1-1-1-1-1-1---|





          FINAL:
 


e|--------------10-----------------------10-------------------------------|
B|--13----11-13-------11-----13-13-11-13-------11-------------------------|
G|-----12----------12----12-----------------12----12----------------------| 
D|------------------------------------------------------------------------| 
A|------------------------------------------------------------------------|
E|------------------------------------------------------------------------|



e|--------------10----------11-11-------10--------------------------------|
B|--13----11-13-------11----------11-13-------11--------------------------|
G|-----12----------12----12----------------12----12-----------------------| 
D|------------------------------------------------------------------------| 
A|------------------------------------------------------------------------|
E|------------------------------------------------------------------------|

      ACOMPAÑAMIENTO:

e|------------------------------------------------------------------------|
B|------------------------------------------------------------------------|
G|--5-5-5-5-5-5-5-x-x-5-5-5-5-5-5-5---------------------------------------| 
D|--5-5-5-5-5-5-5-x-x-5-5-5-5-5-5-5-x-x-6-6-6-6-6-6-6-x-x-3-3-3-3-3-3-3---| 
A|--3-3-3-3-3-3-3-x-x-3-3-3-3-3-3-3-x-x-6-6-6-6-6-6-6-x-x-3-3-3-3-3-3-3---|
E|----------------------------------x-x-4-4-4-4-4-4-4-x-x-1-1-1-1-1-1-1---|


e|------------------------------------------------------------------------|
B|------------------------------------------------------------------------|
G|--5-5-5-5-5-5-5-x-x-5-5-5-5-5-5-5---------------------------------------| 
D|--5-5-5-5-5-5-5-x-x-5-5-5-5-5-5-5-x-x-6-6-6-6-6-6-6-x-x-3-3-3-3-3-3-3---| 
A|--3-3-3-3-3-3-3-x-x-3-3-3-3-3-3-3-x-x-6-6-6-6-6-6-6-x-x-3-3-3-3-3-3-3---|
E|----------------------------------x-x-4-4-4-4-4-4-4-x-x-1-1-1-1-1-1-1---|



     ACOMPAÑAMIENTO 2: 


e|--------------------------3-3-3-3-4-4-4-4-4-4-4-4-1-1-1-1-1-1-1-1-------|
B|--1-1-1-1-3-3-3-3-4-4-4-4-----------------------------------------------|
G|------------------------------------------------------------------------| 
D|------------------------------------------------------------------------| 
A|------------------------------------------------------------------------|
E|------------------------------------------------------------------------|
 pm.................................................................




 --------------------------------------------------------------------------
  PM...: pALM MUTE

  xx: Nota muerta
  
  ////: DEJAR SONAR

 --------------------------------------------------------------------------
            
Hard to play? Try these video lessons and learn fast. | Correct




comments powered by Disqus
↑ Back to top | Tablatures and chords are parodies/interpretations of the original songs. You may use it for private study, scholarship, research or language learning purposes only