» » »

T.A.T.U, All The Things She Said Bass tabs (ver.2)

Artists:  A B C D E F G H I J K L M N O P Q R S T U V W X Y Z # 

All The Things She Said Bass tabs (ver.2)

T.A.T.U Tabs
Rating:
0/5 (0 votes)
All The Things She Said lessons Tabs too difficult? Try these video lessons and learn fast
                Tuning: Drop C four string and Standard five string

I tabbed this for two types of bass so one can get the full range of the song.
(the first two lines of the verse might not be a bass guitar (I suspect keyboards), but 
it fits a bass pretty well. And there's variations in the Chorus, but there incredibly 
subtle and sporadic, so I didn't tab them.)

FOUR STRING: CGCF

Chorus 2x
|-----------------------------------------------------------------|
|-----------------------------------------------------------------|
|-6---x-6---x-6---5---x-5---x-------------------------------x-5---|
|-----------------------------8---5---x-5---x-5---8---x-8---------|

|-----------------------------------------------------------------|
|-----------------------------------------------------------------|
|-6---x-6-----6---5---x-5---x-------------------------------x-5---|
|-----------1-----------------8---5---x-5---x-7---8---x-8---------|


Verse
|-----------------------------------------------------------------|
|-----------------------------------------------------------------|
|-----------------------------------------------------------------|
|-5-5-5---5---5-5-5-5-5-5---5-5-5-3-3-3---3---3-3-3-3-3-3---3-3-3-|

|-----------------------------------------------------------------|
|-----------------------------------------------------------------|
|-1-1-1---1---1-1-1-1-1-1---1-1-1-5-5-5---5---5-5-5-5-5-5---5-5---|
|-----------------------------------------------------------------|

|-----------------------------------------------------------------|
|-----------------------------------------------------------------|
|-------------------------------------------------.---------------|
|-5-----5-----5-5-3h5-3h5---5-5---3-----3-----3---3---x-3-----3---|

|-----------------------------------------------------------------|
|-----------------.-----------------------------------------------|
|-1-----1-----1---1---x-1-----1---5-5-5-5---------5-5-5-5---------|
|---------------------------------------------0---------------0---|

|---------------------------------|
|---------------------------------|
|-5-5-5-5---------5-5-5-5---------|
|-------------0---------------0---|

Chorus

During Solo
2x
|-----------------------------------------------------------------|
|-----------------------------------------------------------------|
|---------------------------------1-1-1-1-1-1-1-1-5-5-5-5-5-5-5-5-|
|-5-5-5-5-5-5-5-5-3-3-3-3-3-3-3-3---------------------------------|


Bridge
1:56
|-----------------------------------------------------------------|
|--------------------------------/5---------------3---------------|
|-/6--------------5-----------------------------------------------|
|-----------------------------------------------------------------|

|-----------------------------------------------------------------|
|-----------------------------------------------------------------|
|-6---------------5-----------------------------------------------|
|---------------------------------5-------5-------5---------------|

Chorus Chorus Chorus




FIVE STRING: BEADG

Chorus
|-----------------------------------------------------------------|
|-----------------------------------------------------------------|
|-4---x-4---x-4---3---x-3---x-------------------------------x-3---|
|-----------------------------4---1---x-1---x-1---4---x-4---------|
|-----------------------------------------------------------------|

|-----------------------------------------------------------------|
|-----------------------------------------------------------------|
|-4---x-4-----4---3---x-3---x-------------------------------x-3---|
|-----------------------------4---1---x-1---x-3---4---x-4---------|
|-----------2-----------------------------------------------------|


Verse
|-----------------------------------------------------------------|
|-----------------------------------------------------------------|
|-----------------------------------------------------------------|
|-1-1-1---1---1-1-1-1-1-1---1-1-1---------------------------------|
|---------------------------------4-4-4---4---4-4-4-4-4-4---4-4-4-|

|-----------------------------------------------------------------|
|-----------------------------------------------------------------|
|---------------------------------3-3-3---3---3-3-3-3-3-3---3-3-3-|
|-4-4-4---4---4-4-4-4-4-4---4-4-4---------------------------------|
|-----------------------------------------------------------------|

|-----------------------------------------------------------------|
|-----------------------------------------------------------------|
|-----------------------------------------------------------------|
|-------------------------------------------------.---------------|
|-6-----6-----6-6-4h6-4h6---6-6---4-----4-----4---4---x-4-----4---|

|-----------------------------------------------------------------|
|-----------------------------------------------------------------|
|-----------------.---------------3-3-3-3---------3-3-3-3---------|
|-4-----4-----4---4---x-4-----4-----------------------------------|
|---------------------------------------------1---------------1---|

|---------------------------------|
|---------------------------------|
|-3-3-3-3---------3-3-3-3---------|
|---------------------------------|
|-------------1---------------1---|

Chorus

During Solo
2x
|-----------------------------------------------------------------|
|-----------------------------------------------------------------|
|-------------------------------------------------3-3-3-3-3-3-3-3-|
|-1-1-1-1-1-1-1-1-----------------4-4-4-4-4-4-4-4-----------------|
|-----------------4-4-4-4-4-4-4-4---------------------------------|


Bridge
1:56
|-----------------------------------------------------------------|
|--------------------------------/3---------------1---------------|
|/4---------------3-----------------------------------------------|
|-----------------------------------------------------------------|
|-----------------------------------------------------------------|

|-----------------------------------------------------------------|
|-----------------------------------------------------------------|
|-4---------------3-----------------------------------------------|
|---------------------------------1-------1-------1---------------|
|-----------------------------------------------------------------|

Chorus Chorus Chorus

And that's it.
            
Submit corrections

comments powered by Disqus
↑ Back to top | T.A.T.U Bass for All The Things She Said. Lyrics for acoustic guitar and electric guitar. Tablatures and chords are parodies/interpretations of the original songs. You may use it for private study, scholarship, research or language learning purposes only