» » »

Glass Vase Cello Case Tabs (ver.2)

Artists:  A B C D E F G H I J K L M N O P Q R S T U V W X Y Z # 

Glass Vase Cello Case Tabs (ver.2)

Tattle Tale
Rating:
0/5 (0 votes)

Tabs too difficult? Try these video lessons and learn fast.
                (Intro)
Didnt see any tabs for this song where the picking part sounded good. so yeah here's 
Enjoy.


e|----------------------------------------------------------------|
B|----0----0---0----3----3---3------------------------------------|
G|-----0----0--------2----2--------0----0---0----0----0---0-------|
D|--2----2----2---0----0----0-------0----0--------0----0----------|
A|-------------------------------2----2----2---3----3----3--------|
E|----------------------------------------------------------------|

e|--3---3---3-3-3-3----3-10---10-10-10-10-10-10-10-10-------|
B|--3---3---3-3-3-3----3-10---10-10-10-10-10-10-10-10-------|
G|--4---4---4-4-4-4----4-11---11-11-11-11-11-11-11-11-------|
D|--5---5---5-5-5-5----5-12---12-12-12-12-12-12-12-12-------|
A|--5---5---5-5-5-5----5-12---12-12-12-12-12-12-12-12-------|
E|--3---3---3-3-3-3----3-10---10-10-10-10-10-10-10-10-------|

e|--3-3-3-3-3-3-3-3----3-3-3-3-3-3-3-3-------|
B|--3-3-3-3-3-3-3-3----3-3-3-3-3-3-3-3-------|
G|--4-4-4-4-4-4-4-4----4-4-4-4-4-4-4-4-------|
D|--5-5-5-5-5-5-5-5----5-5-5-5-5-5-5-5-------|
A|--5-5-5-5-5-5-5-5----5-5-5-5-5-5-5-5-------|
E|-------------------------------------------|
            
Tabs too difficult? Try these video lessons and learn fast.




comments powered by Disqus
↑ Back to top | Tablatures and chords are parodies/interpretations of the original songs. You may use it for private study, scholarship, research or language learning purposes only