» » »

You Hero Tabs (ver.1)

Artists:  A B C D E F G H I J K L M N O P Q R S T U V W X Y Z # 

You Hero Tabs (ver.1)

Tat
Rating:
0/5 (0 votes)

Hard to play? Try these video lessons and learn fast.
                alright alright so uhm well heres the tabs for the song that i did BY MY SELF for the
time in my whole entire life EVER anyways just listen the song and youll get the strumming
HANDS IN FOR HEALTH INSURANCE!!....oh and gnarly british accents o.0!

oh ya this was done by me
priscilla
pahend
priskillet
[[long stories]]

E|-----------|
B|-----------|
G|--9---9----|
D|--9-7-9-9--|
A|--7-7-7-9--|
E|----5---7--| x10

E|-----------------|
B|-----------------|
G|--9---9---9------|
D|--9-7-9-7-9-7-9-7|
A|--7-7-7-7-7-7-9-7|
E|----5---5---5-7-5|

E|-------------------------|
B|-555--7brbrbrbrbrbrbr7-5-|
G|------------------------4|
D|-------------------------|
A|-------------------------|
E|-------------------------|

E|-----------|
B|-----------|
G|--9---9----|
D|--9-7-9-9--|
A|--7-7-7-9--|
E|----5---7--| x3

E|-------------------------|
B|-7b9b9b9b9b9b9brp5-------|
G|-------------------4-----|
D|-------------------------|
A|-------------------------|
E|-------------------------|

E|-----------|
B|-----------|
G|--9---9----|
D|--9-7-9-9--|
A|--7-7-7-9--|
E|----5---7--|x4

E|-----------------|
B|-----------------|
G|--9---9---9------|
D|--9-7-9-7-9-7-9-7|
A|--7-7-7-7-7-7-9-7|
E|----5---5---5-7-5|

E|-----------------|
B|-----------------|
G|------9----------|
D|--7-9-9-9-7-9----|
A|--7-9-7-9-7-9----|
E|--5-7---7-5-7----|

E|-----------|
B|-----------|
G|--9---9----|
D|--9-7-9-9--|
A|--7-7-7-9--|
E|----5---7--|x4

E|---------------------------------------|
B|-----9------9--------------------------|
G|----9-9-9--9-9-9-----------------------|
D|---9---9--9---9------------------------|
A|--7------7------x6[[PICK-----WOOOO!]]--|
E|-----------------------SLIDE-----------|


E|---------------------|
B|---------------------|
G|------9---9---9------|
D|-7----9-7-9-7-9-7-9-7|
A|-7----7-7-7-7-7-7-9-7|
E|-5------5---5---5-7-5|

E|----------------------------------------------|
B|----------------------------------------------|
G|--9---9---9---9---9---------------------------|
D|--9-7-9-7-9-7-9-7-9-7-9-7-THEN--------o.0--9--|
A|--7-7-7-7-7-7-7-7-7-7-9-7-----YOU---ON-----9--|
E|----5---5---5---5---5-7-5--------END-------7--|

dude so im lik soo freakin tired so ther might be some errors but THTS NOT THE POINT!
is the point is is that my boyfriend saw the poster on my wall of jeffree starh in pink
and topless but his arm covering where boobs would be nd looking at the top he was lik 
maybe/kinda hawt but not really but almost there but rite wen he saw the bulge in his
he almost puked hahahahahaha...HA!
            
Hard to play? Try these video lessons and learn fast. | Correct




comments powered by Disqus
↑ Back to top | Tablatures and chords are parodies/interpretations of the original songs. You may use it for private study, scholarship, research or language learning purposes only