>
 >
 >
Road To Paradise

Road To Paradise Guitar Tabs

Tat - Road To Paradise chords, tabs, tablatures, lyrics

Guitar lessons | Add/correct | Request | Top 50 tabs Artists:  A B C D E F G H I J K L M N O P Q R S T U V W X Y Z 0-9

Road To Paradise Guitar Tabs – Tat

CD, Sheet music, Poster

Do you like Road To Paradise? Share with your friends now
ChordsTabsUkulele
                               Road To Paradise                                 


                                                                             Tat
Guitar



                 PM     PM     PM     PM        PM     PM     PM     PM  
              E  E   E  E   E  E   E  E      E  E   E  E   E  E   E  E   
E||-------|------------------------------|------------------------------|
B||-------|------------------------------|------------------------------|
G||-------|--14-----14-----14-----14-----|--12-----12-----12-----12-----|
D||-------|------0------0------0------0--|------0------0------0------0--|
A||-------|------------------------------|------------------------------|
E||-------|------------------------------|------------------------------|


      PM     PM     PM     PM       PM    PM    PM    PM  
   E  E   E  E   E  E   E  E     E  E  E  E  E  E  E  E   
------------------------------|--------------------------|
------------------------------|--------------------------|
--11-----11-----11-----11-----|--9-----9-----9-----9-----|
------0------0------0------0--|-----0-----0-----0-----0--|
------------------------------|--------------------------|
------------------------------|--------------------------|


      PM     PM     PM     PM        PM     PM     PM     PM  
   E  E   E  E   E  E   E  E      E  E   E  E   E  E   E  E   
------------------------------|------------------------------|
------------------------------|------------------------------|
--14-----14-----14-----14-----|--12-----12-----12-----12-----|
------0------0------0------0--|------0------0------0------0--|
------------------------------|------------------------------|
------------------------------|------------------------------|


      PM     PM     PM     PM       PM    PM    PM    PM  
   E  E   E  E   E  E   E  E     E  E  E  E  E  E  E  E   
------------------------------|--------------------------|
------------------------------|--------------------------|
--11-----11-----11-----11-----|--9-----9-----9-----9-----|
------0------0------0------0--|-----0-----0-----0-----0--|
------------------------------|--------------------------|
------------------------------|--------------------------|


      PM     PM     PM     PM        PM     PM     PM     PM  
   E  E   E  E   E  E   E  E      E  E   E  E   E  E   E  E   
------------------------------|------------------------------|
------------------------------|------------------------------|
--14-----14-----14-----14-----|--12-----12-----12-----12-----|
------0------0------0------0--|------0------0------0------0--|
------------------------------|------------------------------|
------------------------------|------------------------------|


      PM     PM     PM     PM       PM    PM    PM    PM  
   E  E   E  E   E  E   E  E     E  E  E  E  E  E  E  E   
------------------------------|--------------------------|
------------------------------|--------------------------|
--11-----11-----11-----11-----|--9-----9-----9-----9-----|
------0------0------0------0--|-----0-----0-----0-----0--|
------------------------------|--------------------------|
------------------------------|--------------------------|


      PM     PM     PM     PM        PM     PM     PM     PM  
   E  E   E  E   E  E   E  E      E  E   E  E   E  E   E  E   
------------------------------|------------------------------|
------------------------------|------------------------------|
--14-----14-----14-----14-----|--12-----12-----12-----12-----|
------0------0------0------0--|------0------0------0------0--|
------------------------------|------------------------------|
------------------------------|------------------------------|


      PM     PM     PM     PM       PM    PM    PM    PM  
   E  E   E  E   E  E   E  E     E  E  E  E  E  E  E  E   
------------------------------|--------------------------|
------------------------------|--------------------------|
--11-----11-----11-----11-----|--9-----9-----9-----9-----|
------0------0------0------0--|-----0-----0-----0-----0--|
------------------------------|--------------------------|
------------------------------|--------------------------|


      PM     PM     PM     PM        PM     PM     PM     PM  
   E  E   E  E   E  E   E  E      E  E   E  E   E  E   E  E   
------------------------------|------------------------------|
------------------------------|------------------------------|
--14-----14-----14-----14-----|--12-----12-----12-----12-----|
------0------0------0------0--|------0------0------0------0--|
------------------------------|------------------------------|
------------------------------|------------------------------|


      PM     PM     PM     PM       PM    PM    PM    PM  
   E  E   E  E   E  E   E  E     E  E  E  E  E  E  E  E   
------------------------------|--------------------------|
------------------------------|--------------------------|
--11-----11-----11-----11-----|--9-----9-----9-----9-----|
------0------0------0------0--|-----0-----0-----0-----0--|
------------------------------|--------------------------|
------------------------------|--------------------------|


      PM     PM     PM     PM        PM     PM     PM     PM  
   E  E   E  E   E  E   E  E      E  E   E  E   E  E   E  E   
------------------------------|------------------------------|
------------------------------|------------------------------|
--14-----14-----14-----14-----|--12-----12-----12-----12-----|
------0------0------0------0--|------0------0------0------0--|
------------------------------|------------------------------|
------------------------------|------------------------------|


      PM     PM     PM     PM       PM    PM    PM    PM  
   E  E   E  E   E  E   E  E     E  E  E  E  E  E  E  E   
------------------------------|--------------------------|
------------------------------|--------------------------|
--11-----11-----11-----11-----|--9-----9-----9-----9-----|
------0------0------0------0--|-----0-----0-----0-----0--|
------------------------------|--------------------------|
------------------------------|--------------------------|


   Q     E   Q     E   E   E      Q     E   Q     E   E   E   
------------------------------|------------------------------|
------------------------------|------------------------------|
------------------------------|--12----12--12----12--12--12--|
--12----12--12----12--12--12--|--12----12--12----12--12--12--|
--12----12--12----12--12--12--|--10----10--10----10--10--10--|
--10----10--10----10--10--10--|------------------------------|


   Q     E   Q     E   E   E      E   E  E   E  E   E  E   E   
------------------------------|-------------------------------|
------------------------------|-------------------------------|
------------------------------|--14--14-----14-----14-----14--|
--12----12--12----12--12--12--|--14--14-----14-----14-----14--|
--12----12--12----12--12--12--|--12--12-----12-----12-----12--|
--10----10--10----10--10--10--|-------------------------------|


   Q     E   Q     E   E   E      Q     E   Q     E   E   E   
------------------------------|------------------------------|
------------------------------|------------------------------|
------------------------------|--12----12--12----12--12--12--|
--12----12--12----12--12--12--|--12----12--12----12--12--12--|
--12----12--12----12--12--12--|--10----10--10----10--10--10--|
--10----10--10----10--10--10--|------------------------------|


   Q     E   Q     E   E   E      E   E   E   E   E   E   E   E   
------------------------------|----------------------------------|
------------------------------|----------------------------------|
------------------------------|--14--14--14--14--14--14--14--14--|
--12----12--12----12--12--12--|--14--14--14--14--14--14--14--14--|
--12----12--12----12--12--12--|--12--12--12--12--12--12--12--12--|
--10----10--10----10--10--10--|----------------------------------|


       PM  PM  PM  PM  PM  PM  PM         PM  PM  PM  PM  PM  PM  PM  
   E   E   E   E   E   E   E   E      E   E   E   E   E   E   E   E   
----------------------------------|----------------------------------|
----------------------------------|----------------------------------|
----------------------------------|--12------------------------------|
--12------------------------------|--12--12--12--12--12--12--12--12--|
--12--12--12--12--12--12--12--12--|--10--10--10--10--10--10--10--10--|
--10--10--10--10--10--10--10--10--|----------------------------------|


       PM  PM  PM  PM  PM  PM  PM         PM  PM  PM      PM      PM  
   E   E   E   E   E   E   E   E      E   E   E   E   E   E   E   E   
----------------------------------|----------------------------------|
----------------------------------|----------------------------------|
----------------------------------|--14------------------------------|
--12------------------------------|--14--14--14--14--14--14--14--14--|
--12--12--12--12--12--12--12--12--|--12--12--12--12--12--12--12--12--|
--10--10--10--10--10--10--10--10--|----------------------------------|


       PM  PM  PM  PM  PM  PM  PM         PM  PM  PM  PM  PM  PM  PM  
   E   E   E   E   E   E   E   E      E   E   E   E   E   E   E   E   
----------------------------------|----------------------------------|
----------------------------------|----------------------------------|
----------------------------------|--12------------------------------|
--12------------------------------|--12--12--12--12--12--12--12--12--|
--12--12--12--12--12--12--12--12--|--10--10--10--10--10--10--10--10--|
--10--10--10--10--10--10--10--10--|----------------------------------|


       PM  PM  PM  PM  PM  PM  PM                                     
   E   E   E   E   E   E   E   E      E   E   E   E   E   E   E   E   
----------------------------------|----------------------------------|
----------------------------------|----------------------------------|
----------------------------------|--14--14--14--14--14--14--14--14--|
--12------------------------------|--14--14--14--14--14--14--14--14--|
--12--12--12--12--12--12--12--12--|--12--12--12--12--12--12--12--12--|
--10--10--10--10--10--10--10--10--|----------------------------------|


   Q     E   Q     E   E   E      Q     E   Q     E   E   E   
------------------------------|------------------------------|
------------------------------|------------------------------|
------------------------------|--12----12--12----12--12--12--|
--12----12--12----12--12--12--|--12----12--12----12--12--12--|
--12----12--12----12--12--12--|--10----10--10----10--10--10--|
--10----10--10----10--10--10--|------------------------------|


   Q     E   Q     E   E   E      E   E   E   E   E   E   E   E   
------------------------------|----------------------------------|
------------------------------|----------------------------------|
------------------------------|--14---L--14--14---L--14--14--14--|
--12----12--12----12--12--12--|--14---L--14--14---L--14--14--14--|
--12----12--12----12--12--12--|--12---L--12--12---L--12--12--12--|
--10----10--10----10--10--10--|----------------------------------|


   Q     E   Q     E   E   E      Q     E   Q     E   E   E   
------------------------------|------------------------------|
------------------------------|------------------------------|
------------------------------|--12----12--12----12--12--12--|
--12----12--12----12--12--12--|--12----12--12----12--12--12--|
--12----12--12----12--12--12--|--10----10--10----10--10--10--|
--10----10--10----10--10--10--|------------------------------|


   Q     E   Q     E   E   E      E   E   E   E   E   E   E   E   
------------------------------|----------------------------------|
------------------------------|----------------------------------|
------------------------------|--14---L--14--14---L--14--14--14--|
--12----12--12----12--12--12--|--14---L--14--14---L--14--14--14--|
--12----12--12----12--12--12--|--12---L--12--12---L--12--12--12--|
--10----10--10----10--10--10--|----------------------------------|


         PM        PM                                    PM        PM        
   Q     E   Q     E  Q       W                    Q     E   Q     E   Q     
---------------------------|-------------------|----------------------------|
---------------------------|-------------------|----------------------------|
---------------------------|-------------------|----------------------14----|
------------12-------------|-------------------|------------12--------14----|
--12----12--10----12--7----|--L----------------|--12----12--10----12--12----|
--10----10--------10--5----|--L----------------|--10----10--------10--------|


                             PM        PM                           
  W                    Q     E   Q     E  Q       W                 
-------------------|---------------------------|-------------------|
-------------------|---------------------------|-------------------|
--L----------------|---------------------------|-------------------|
--L----------------|------------12-------------|-------------------|
--L----------------|--12----12--10----12--7----|--L----------------|
-------------------|--10----10--------10--5----|--L----------------|


         PM        PM                                                           
   Q     E   Q     E   Q       W                    Q     E   Q     E   E   E   
----------------------------|-------------------|------------------------------|
----------------------------|-------------------|------------------------------|
----------------------14----|--L----------------|------------------------------|
------------12--------14----|--L----------------|--12----12--12----12--12--12--|
--12----12--10----12--12----|--L----------------|--12----12--12----12--12--12--|
--10----10--------10--------|-------------------|--10----10--10----10--10--10--|


   Q     E   Q     E   E   E      Q     E   Q     E   E   E   
------------------------------|------------------------------|
------------------------------|------------------------------|
--12----12--12----12--12--12--|------------------------------|
--12----12--12----12--12--12--|--12----12--12----12--12--12--|
--10----10--10----10--10--10--|--12----12--12----12--12--12--|
------------------------------|--10----10--10----10--10--10--|


   E   E   E   E   E   E   E   E      Q     E   Q     E   E   E   
----------------------------------|------------------------------|
----------------------------------|------------------------------|
--14---L--14--14---L--14--14--14--|------------------------------|
--14---L--14--14---L--14--14--14--|--12----12--12----12--12--12--|
--12---L--12--12---L--12--12--12--|--12----12--12----12--12--12--|
----------------------------------|--10----10--10----10--10--10--|


   Q     E   Q     E   E   E      Q     E   Q     E   E   E   
------------------------------|------------------------------|
------------------------------|------------------------------|
--12----12--12----12--12--12--|------------------------------|
--12----12--12----12--12--12--|--12----12--12----12--12--12--|
--10----10--10----10--10--10--|--12----12--12----12--12--12--|
------------------------------|--10----10--10----10--10--10--|


   E   E   E   E   E   E   E   E      Q     E   Q     E   E   E   
----------------------------------|------------------------------|
----------------------------------|------------------------------|
--14---L--14--14---L--14--14--14--|------------------------------|
--14---L--14--14---L--14--14--14--|--12----12--12----12--12--12--|
--12---L--12--12---L--12--12--12--|--12----12--12----12--12--12--|
----------------------------------|--10----10--10----10--10--10--|


   Q     E   Q     E   E   E      Q     E   Q     E   E   E   
------------------------------|------------------------------|
------------------------------|------------------------------|
--12----12--12----12--12--12--|------------------------------|
--12----12--12----12--12--12--|--12----12--12----12--12--12--|
--10----10--10----10--10--10--|--12----12--12----12--12--12--|
------------------------------|--10----10--10----10--10--10--|


   E   E   E   E   E   E   E   E      Q     E   Q     E   E   E   
----------------------------------|------------------------------|
----------------------------------|------------------------------|
--14---L--14--14---L--14--14--14--|------------------------------|
--14---L--14--14---L--14--14--14--|--12----12--12----12--12--12--|
--12---L--12--12---L--12--12--12--|--12----12--12----12--12--12--|
----------------------------------|--10----10--10----10--10--10--|


   Q     E   Q     E   E   E      Q     E   Q     E   E   E   
------------------------------|------------------------------|
------------------------------|------------------------------|
--12----12--12----12--12--12--|------------------------------|
--12----12--12----12--12--12--|--12----12--12----12--12--12--|
--10----10--10----10--10--10--|--12----12--12----12--12--12--|
------------------------------|--10----10--10----10--10--10--|


   E   E   E   E   E   E   E   E     E  E  E  E  E  E  E  E   
----------------------------------|--------------------------|
----------------------------------|--------------------------|
--14---L--14--14---L--14--14--14--|--9--9--9-----7--7--7-----|
--14---L--14--14---L--14--14--14--|--------------------------|
--12---L--12--12---L--12--12--12--|--7--7--7-----5--5--5-----|
----------------------------------|--------------------------|


  E  E  E  E  E  E  E  E     E  E  E  E  E  E  E  E   
--------------------------|--------------------------|
--------------------------|--------------------------|
--9--9--9-----7--7--7-----|--9--9--9-----7--7--7-----|
--------------------------|--------------------------|
--7--7--7-----5--5--5-----|--7--7--7-----5--5--5-----|
--------------------------|--------------------------|


   E   E   E  E  E  E  E  E     E  E  E  E  E  E  E  E   
-----------------------------|--------------------------|
-----------------------------|--------------------------|
--11--11--11-----9--9--9--9--|--9--9--9-----7--7--7-----|
-----------------------------|--------------------------|
---9---9---9-----7--7--7--7--|--7--7--7-----5--5--5-----|
-----------------------------|--------------------------|


  E  E  E  E  E  E  E  E     E  E  E  E  E  E  E  E   
--------------------------|--------------------------|
--------------------------|--------------------------|
--9--9--9-----7--7--7-----|--9--9--9-----7--7--7-----|
--------------------------|--------------------------|
--7--7--7-----5--5--5-----|--7--7--7-----5--5--5-----|
--------------------------|--------------------------|


   E   E   E  E  E  E  E  E      Q     E   Q     E   E   E   
-----------------------------|------------------------------|
-----------------------------|------------------------------|
--11--11--11-----9--9--9--9--|--12----12--12----12--12--12--|
-----------------------------|--12----12--12----12--12--12--|
---9---9---9-----7--7--7--7--|--10----10--10----10--10--10--|
-----------------------------|------------------------------|


   Q     E   Q     E   E   E      Q     E   Q     E   E   E   
------------------------------|------------------------------|
------------------------------|------------------------------|
--12----12--12----12--12--12--|------------------------------|
--12----12--12----12--12--12--|--12----12--12----12--12--12--|
--10----10--10----10--10--10--|--12----12--12----12--12--12--|
------------------------------|--10----10--10----10--10--10--|


   Q     E   Q     E   E   E      E   E   E   E   E   E   E   E   
------------------------------|----------------------------------|
------------------------------|----------------------------------|
------------------------------|--14---L--14--14---L--14--14--14--|
--12----12--12----12--12--12--|--14---L--14--14---L--14--14--14--|
--12----12--12----12--12--12--|--12---L--12--12---L--12--12--12--|
--10----10--10----10--10--10--|----------------------------------|


   E   E   E   E   E   E   E   E      Q     E   Q     E   E   E   
----------------------------------|------------------------------|
----------------------------------|------------------------------|
--14---L--14--14---L--14--14--14--|------------------------------|
--14---L--14--14---L--14--14--14--|--12----12--12----12--12--12--|
--12---L--12--12---L--12--12--12--|--12----12--12----12--12--12--|
----------------------------------|--10----10--10----10--10--10--|


   Q     E   Q     E   E   E      Q     E   Q     E   E   E   
------------------------------|------------------------------|
------------------------------|------------------------------|
------------------------------|--12----12--12----12--12--12--|
--12----12--12----12--12--12--|--12----12--12----12--12--12--|
--12----12--12----12--12--12--|--10----10--10----10--10--10--|
--10----10--10----10--10--10--|------------------------------|


   Q     E   Q     E   E   E      Q     E   Q     E   E   E   
------------------------------|------------------------------|
------------------------------|------------------------------|
--12----12--12----12--12--12--|------------------------------|
--12----12--12----12--12--12--|--12----12--12----12--12--12--|
--10----10--10----10--10--10--|--12----12--12----12--12--12--|
------------------------------|--10----10--10----10--10--10--|


   Q     E   Q     E   E   E      E   E   E   E   E   E   E   E   
------------------------------|----------------------------------|
------------------------------|----------------------------------|
------------------------------|--14---L--14--14---L--14--14--14--|
--12----12--12----12--12--12--|--14---L--14--14---L--14--14--14--|
--12----12--12----12--12--12--|--12---L--12--12---L--12--12--12--|
--10----10--10----10--10--10--|----------------------------------|


                                         PM     PM     PM     PM  
   E   E   E   E   E   E   E   E      E  E   E  E   E  E   E  E   
----------------------------------|------------------------------|
----------------------------------|------------------------------|
--14---L--14--14---L--14--14--14--|--14-----14-----14-----14-----|
--14---L--14--14---L--14--14--14--|------0------0------0------0--|
--12---L--12--12---L--12--12--12--|------------------------------|
----------------------------------|------------------------------|


      PM     PM     PM     PM        PM     PM     PM     PM  
   E  E   E  E   E  E   E  E      E  E   E  E   E  E   E  E   
------------------------------|------------------------------|
------------------------------|------------------------------|
--12-----12-----12-----12-----|--11-----11-----11-----11-----|
------0------0------0------0--|------0------0------0------0--|
------------------------------|------------------------------|
------------------------------|------------------------------|


     PM    PM    PM    PM        PM     PM     PM     PM  
  E  E  E  E  E  E  E  E      E  E   E  E   E  E   E  E   
--------------------------|------------------------------|
--------------------------|------------------------------|
--9-----9-----9-----9-----|--14-----14-----14-----14-----|
-----0-----0-----0-----0--|------0------0------0------0--|
--------------------------|------------------------------|
--------------------------|------------------------------|


      PM     PM     PM     PM        PM     PM     PM     PM  
   E  E   E  E   E  E   E  E      E  E   E  E   E  E   E  E   
------------------------------|------------------------------|
------------------------------|------------------------------|
--12-----12-----12-----12-----|--11-----11-----11-----11-----|
------0------0------0------0--|------0------0------0------0--|
------------------------------|------------------------------|
------------------------------|------------------------------|


     PM    PM    PM    PM        PM     PM     PM     PM  
  E  E  E  E  E  E  E  E      E  E   E  E   E  E   E  E   
--------------------------|------------------------------|
--------------------------|------------------------------|
--9-----9-----9-----9-----|--14-----14-----14-----14-----|
-----0-----0-----0-----0--|------0------0------0------0--|
--------------------------|------------------------------|
--------------------------|------------------------------|


      PM     PM     PM     PM        PM     PM     PM     PM  
   E  E   E  E   E  E   E  E      E  E   E  E   E  E   E  E   
------------------------------|------------------------------|
------------------------------|------------------------------|
--12-----12-----12-----12-----|--11-----11-----11-----11-----|
------0------0------0------0--|------0------0------0------0--|
------------------------------|------------------------------|
------------------------------|------------------------------|


     PM    PM    PM    PM        PM     PM     PM     PM  
  E  E  E  E  E  E  E  E      E  E   E  E   E  E   E  E   
--------------------------|------------------------------|
--------------------------|------------------------------|
--9-----9-----9-----9-----|--14-----14-----14-----14-----|
-----0-----0-----0-----0--|------0------0------0------0--|
--------------------------|------------------------------|
--------------------------|------------------------------|


      PM     PM     PM     PM        PM     PM     PM     PM  
   E  E   E  E   E  E   E  E      E  E   E  E   E  E   E  E   
------------------------------|------------------------------|
------------------------------|------------------------------|
--12-----12-----12-----12-----|--11-----11-----11-----11-----|
------0------0------0------0--|------0------0------0------0--|
------------------------------|------------------------------|
------------------------------|------------------------------|


     PM    PM    PM    PM        PM     PM     PM     PM  
  E  E  E  E  E  E  E  E      E  E   E  E   E  E   E  E   
--------------------------|------------------------------|
--------------------------|------------------------------|
--9-----9-----9-----9-----|--14-----14-----14-----14-----|
-----0-----0-----0-----0--|------0------0------0------0--|
--------------------------|------------------------------|
--------------------------|------------------------------|


      PM     PM     PM     PM        PM     PM     PM     PM  
   E  E   E  E   E  E   E  E      E  E   E  E   E  E   E  E   
------------------------------|------------------------------|
------------------------------|------------------------------|
--12-----12-----12-----12-----|--11-----11-----11-----11-----|
------0------0------0------0--|------0------0------0------0--|
------------------------------|------------------------------|
------------------------------|------------------------------|


     PM    PM    PM    PM        PM     PM     PM     PM  
  E  E  E  E  E  E  E  E      E  E   E  E   E  E   E  E   
--------------------------|------------------------------|
--------------------------|------------------------------|
--9-----9-----9-----9-----|--14-----14-----14-----14-----|
-----0-----0-----0-----0--|------0------0------0------0--|
--------------------------|------------------------------|
--------------------------|------------------------------|


      PM     PM     PM     PM        PM     PM     PM     PM  
   E  E   E  E   E  E   E  E      E  E   E  E   E  E   E  E   
------------------------------|------------------------------|
------------------------------|------------------------------|
--12-----12-----12-----12-----|--11-----11-----11-----11-----|
------0------0------0------0--|------0------0------0------0--|
------------------------------|------------------------------|
------------------------------|------------------------------|


     PM    PM    PM    PM                                 
  E  E  E  E  E  E  E  E      Q     E   Q     E   E   E   
--------------------------|------------------------------|
--------------------------|------------------------------|
--9-----9-----9-----9-----|------------------------------|
-----0-----0-----0-----0--|--12----12--12----12--12--12--|
--------------------------|--12----12--12----12--12--12--|
--------------------------|--10----10--10----10--10--10--|


   Q     E   Q     E   E   E      Q     E   Q     E   E   E   
------------------------------|------------------------------|
------------------------------|------------------------------|
--12----12--12----12--12--12--|------------------------------|
--12----12--12----12--12--12--|--12----12--12----12--12--12--|
--10----10--10----10--10--10--|--12----12--12----12--12--12--|
------------------------------|--10----10--10----10--10--10--|


   E   E   E   E   E   E   E   E      Q     E   Q     E   E   E   
----------------------------------|------------------------------|
----------------------------------|------------------------------|
--14---L--14--14---L--14--14--14--|------------------------------|
--14---L--14--14---L--14--14--14--|--12----12--12----12--12--12--|
--12---L--12--12---L--12--12--12--|--12----12--12----12--12--12--|
----------------------------------|--10----10--10----10--10--10--|


   Q     E   Q     E   E   E      Q     E   Q     E   E   E   
------------------------------|------------------------------|
------------------------------|------------------------------|
--12----12--12----12--12--12--|------------------------------|
--12----12--12----12--12--12--|--12----12--12----12--12--12--|
--10----10--10----10--10--10--|--12----12--12----12--12--12--|
------------------------------|--10----10--10----10--10--10--|


   E   E   E   E   E   E   E   E      Q     E   Q     E   E   E   
----------------------------------|------------------------------|
----------------------------------|------------------------------|
--14---L--14--14---L--14--14--14--|------------------------------|
--14---L--14--14---L--14--14--14--|--12----12--12----12--12--12--|
--12---L--12--12---L--12--12--12--|--12----12--12----12--12--12--|
----------------------------------|--10----10--10----10--10--10--|


   Q     E   Q     E   E   E      Q     E   Q     E   E   E   
------------------------------|------------------------------|
------------------------------|------------------------------|
--12----12--12----12--12--12--|------------------------------|
--12----12--12----12--12--12--|--12----12--12----12--12--12--|
--10----10--10----10--10--10--|--12----12--12----12--12--12--|
------------------------------|--10----10--10----10--10--10--|


   E   E   E   E   E   E   E   E      Q     E   Q     E   E   E   
----------------------------------|------------------------------|
----------------------------------|------------------------------|
--14---L--14--14---L--14--14--14--|------------------------------|
--14---L--14--14---L--14--14--14--|--12----12--12----12--12--12--|
--12---L--12--12---L--12--12--12--|--12----12--12----12--12--12--|
----------------------------------|--10----10--10----10--10--10--|


   Q     E   Q     E   E   E      Q     E   Q     E   E   E   
------------------------------|------------------------------|
------------------------------|------------------------------|
--12----12--12----12--12--12--|------------------------------|
--12----12--12----12--12--12--|--12----12--12----12--12--12--|
--10----10--10----10--10--10--|--12----12--12----12--12--12--|
------------------------------|--10----10--10----10--10--10--|


                                            PM        PM       
   E   E   E   E   E   E   E   E      Q     E   Q     E  Q     
----------------------------------|---------------------------|
----------------------------------|---------------------------|
--14---L--14--14---L--14--14--14--|---------------------------|
--14---L--14--14---L--14--14--14--|------------12-------------|
--12---L--12--12---L--12--12--12--|--12----12--10----12--7----|
----------------------------------|--10----10--------10--5----|


                             PM        PM                            
  W                    Q     E   Q     E   Q       W                 
-------------------|----------------------------|-------------------|
-------------------|----------------------------|-------------------|
-------------------|----------------------14----|--L----------------|
-------------------|------------12--------14----|--L----------------|
--L----------------|--12----12--10----12--12----|--L----------------|
--L----------------|--10----10--------10--------|-------------------|


         PM        PM                                    PM        PM        
   Q     E   Q     E  Q       W                    Q     E   Q     E   Q     
---------------------------|-------------------|----------------------------|
---------------------------|-------------------|----------------------------|
---------------------------|-------------------|----------------------14----|
------------12-------------|-------------------|------------12--------14----|
--12----12--10----12--7----|--L----------------|--12----12--10----12--12----|
--10----10--------10--5----|--L----------------|--10----10--------10--------|


  W                   W                    Q    Q     Q    Q     
-------------------|-------------------|------------------------|
-------------------|-------------------|------------------------|
--L----------------|--L----------------|--14---------14---------|
--L----------------|--L----------------|--14---------14---------|
--L----------------|--L----------------|--12---------12---------|
-------------------|-------------------|------------------------|


   Q    Q     Q    Q        W                    H         H          
------------------------|--------------------|----------------------||
------------------------|--------------------|----------------------||
--14---------14---------|--------------------|----------------------||
--14---------14---------|--12----------------|--12\-----------------||
--12---------12---------|--12----------------|--12\-----------------||
------------------------|--10----------------|--10\-----------------||





Comments


Popular Tat tabs & chords
Bloodstain Bass Tabs
Here's To You Bass Tabs
I Don't Want To (Love You) Chords
Road To Paradise Chords
Bloodstain Tabs
Bloodstain 1 Tabs
I Dont Wann Love You Tabs
Road To Paradise Intro Tabs
You Hero Tabs
I Dont Want To Love You Ukulele


Song lyrics



↑ Back to top | Tablatures and chords are parodies/interpretations of the original songs. You may use it for private study, scholarship, research or language learning purposes only
© 2014 AZChords.com Contact us | Privacy policy | DMCA | Add/correct tabs | Request tabs | Top 50 tabs