>
 >
 >
Here's To You

Here's To You Bass Tabs

Tat - Here's To You chords, tabs, tablatures, lyrics

Guitar lessons | Add/correct | Request | Top 50 tabs Artists:  A B C D E F G H I J K L M N O P Q R S T U V W X Y Z 0-9

Here's To You Bass Tabs – Tat

CD, Sheet music, Poster

Do you like Here's To You? Share with your friends now
Bass Tabs
My first ever tab - apologies for any mistakes.

Artist : TAT
Album : Soho Lights


Intro
(So don't touch me...)
G|------------|
D|------------|
A|------------|
E|-/6-2-4-4-2-|

Intro pt2
(Because I've been down every road...)

G|---------------------------------------------------|
D|---------------------------------------------------|
A|------4-------4-------4-------4-------4------------|
E|--6-2---4-6-2---4-6-2---4-6-2---4-6-2---4-4-4-4/16-|

Chorus
(So don't touch me..)

G|-------------------------------------------|
D|-------------------------------------------|
A|-------------------------------6-4-3-------| x2
E|--6(x16)-2(16)-4(x15)-2-4(x8)----------4-6-|

Post Chorus

G|--5-6-8-6-5------3-3-4-6-4-3-----5-5-6-8-6-5-----5-5-6-8-6-5-----|
D|-----------6-4--------------4-6--------------6-6-------------6-8-|
A|-----------------------------------------------------------------|
E|-----------------------------------------------------------------|

Verse
(Here's to you, another bottle of wine)

G|-------------------------------8-6-5-----|
D|--8(x16)-4(x16)-6x(15)-4-6(x8)-------6-8-|
A|-----------------------------------------|
E|-----------------------------------------|

Mid 8
(Oh, Here's to you boy, another bottle of wine boy...)

G|----------------|
D|----------------|
A|----------------| x2
E|--6-6-2-2-6-6-4-|

G|------------------------------|
D|------------------------------|
A|------------------------------|
E|--6(x8)-2(X8)-6(x8)-4(x12)/16-|


Song Order:

Intro
Intro pt2
Chorus
Post Chorus
Verse x2
Intro pt2
Chorus x2
Mid 8
Chorus


Any suggestions contact me at either:

Facebook page
OR





Comments


Popular Tat tabs & chords
I Don't Want To (Love You) Chords
Road To Paradise Chords
Bloodstain 1 Tabs
I Dont Wann Love You Tabs
Road To Paradise Tabs
Road To Paradise Intro Tabs
Road To Paradise Intro 1 Tabs
You Hero Tabs
I Dont Want To Love You Ukulele
Road To Paradise Ukulele


Song lyrics



↑ Back to top | Tablatures and chords are parodies/interpretations of the original songs. You may use it for private study, scholarship, research or language learning purposes only
© 2014 AZChords.com Contact us | Privacy policy | DMCA | Add/correct tabs | Request tabs | Top 50 tabs