» » »

Tat, Bloodstain Bass tabs (ver.1)

Artists:  A B C D E F G H I J K L M N O P Q R S T U V W X Y Z # 

Bloodstain Bass tabs (ver.1)

Tat Tabs
 Rating:
4.2/5 (5 votes)
Bloodstain lessons Tabs too difficult? Try these video lessons and learn fast
1
                Band: TAT

Great Song

Intro: No bass here but here is the guitar 
       part which is fun to play on bass too

G|----------------------------------|
D|----------------------------------|
A|-6--68986----6-9-----686--9-98----| x2
E|---------97-7----9--9---9------9--|

Or an octave higher:

G|-8--81011108-----8-11-------8108---11-1110----|
D|------------119-9-----11--11----11---------11-| 
A|----------------------------------------------|
E|----------------------------------------------|


Verse (0:11) (bass comes in here) 

G|----------------------------------|
D|----------------------------------| 
A|\6-6-6-6-2-2-2-2-4-4-4-4-4-4-4-4--| x2
E|----------------------------------|

G|----------------------------------|
D|-------------------------4-4------| 
A|\6-6-6-6-2-2-2-2-4-4-4-4-----4-4--|
E|----------------------------------|

G|----------------------------------|
D|----------------------------------| 
A|\6-6-6-6-2-2-2-2-4-4-4-4-4-4-4-4--|
E|----------------------------------|

G|----------------------------------|
D|-------------------------4-4------| 
A|\6-6-6-6-2-2-2-2-4-4-4-4-----4-4--|
E|----------------------------------|

G|----------------------------------|
D|----------------------------------| 
A|\6-6-6-6-2-2-2-2-4-4-4-4-4-4-4-4--|
E|----------------------------------|

G|----------------------------------|
D|-------------------------4-4------| 
A|\6-6-6-6-2-2-2-2-4-4-4-4-----4-4--|
E|----------------------------------|

G|----------------------------------|
D|----------------------------------| 
A|\6-6-6-6-2-2-2-2-4-4-4-4-4-4-4-4--|
E|----------------------------------|

Chorus (0:31) x4

G|----------------------------------|
D|--------4-------4--------4--4-----|
A|-6-66666-2-22-22-4-444444----4--4-|
E|----------------------------------|

Verse (0:51) 

G|----------------------------------|
D|----------------------------------| 
A|\6-6-6-6-2-2-2-2-4-4-4-4-4-4-4-4--| x2
E|----------------------------------|

G|----------------------------------|
D|-------------------------4-4------| 
A|\6-6-6-6-2-2-2-2-4-4-4-4-----4-4--|
E|----------------------------------|

G|----------------------------------|
D|----------------------------------| 
A|\6-6-6-6-2-2-2-2-4-4-4-4-4-4-4-4--|
E|----------------------------------|

G|----------------------------------|
D|-------------------------4-4------| 
A|\6-6-6-6-2-2-2-2-4-4-4-4-----4-4--|
E|----------------------------------|

G|----------------------------------|
D|----------------------------------| 
A|\6-6-6-6-2-2-2-2-4-4-4-4-4-4-4-4--|
E|----------------------------------|

G|----------------------------------|
D|-------------------------4-4------| 
A|\6-6-6-6-2-2-2-2-4-4-4-4-----4-4--|
E|----------------------------------|

G|----------------------------------|
D|----------------------------------| 
A|\6-6-6-6-2-2-2-2-4-4-4-4-4-4-4-4--|
E|----------------------------------|

Chorus (1:12) 

G|----------------------------------|
D|--------4-------4--------4--4-----|
A|-6-66666-2-22-22-4-444444----4--4-| x6
E|----------------------------------|

Bridge (1:41)

G|----------------------------------|
D|----------------------------------| 
A|-22222222222222221111111111111111-| x2
E|----------------------------------|

Bass joins in on the fun: (1:51)

G|----------------------------------|
D|----------------------------------|
A|-6--68986----6-9-----686--9-98----| x2
E|---------97-7----9--9---9------9--|

Chorus (2:00)

G|----------------------------------|
D|--------4-------4--------4--4-----|
A|-6-66666-2-22-22-4-444444----4--4-| x4
E|----------------------------------|

G|-----------------------------------------------|
D|--------4-------4------------------------444---|
A|-6-66666-2-22-22-4-------4-------4----------4--|
E|-----------------------------------------------|

G|----------------------------------|
D|--------4-------4--------4--4-----|
A|-6-66666-2-22-22-4-444444----4--4-| x3
E|----------------------------------|

Ending (2:38)

G|------------------------------------|
D|------------------------------------|
A|-6--68986----6-9-----686--9-98---6~-|
E|---------97-7----9--9---9------9----|
            
Submit corrections

comments powered by Disqus
↑ Back to top | Tat Bass for Bloodstain. Lyrics for acoustic guitar and electric guitar. 1 Tablatures and chords are parodies/interpretations of the original songs. You may use it for private study, scholarship, research or language learning purposes only