>
 >
Whats Goin On

Whats Goin On Guitar Tabs

Taste - Whats Goin On chords, tabs, tablatures, lyrics

Guitar lessons | Add/correct | Request | Top 50 tabs Artists:  A B C D E F G H I J K L M N O P Q R S T U V W X Y Z 0-9

Whats Goin On Guitar Tabs – Taste

CD, Sheet music, Poster

Do you like Whats Goin On? Share with your friends now
Tabs
what's going on
Taste
                                D                                D   
E||--------------------------------|--------------------------------|
B||--------------------------3--3--|--------------------------3--3--|
G||--------------------------2--2--|--------------------------2--2--|
D||--0h3h0---0h3h0---0h3h0---0--0--|--0h3h0---0h3h0---0h3h0---0--0--|
A||--------3-------3-------3-x--x--|--------3-------3-------3-x--x--|
E||--------------------------------|--------------------------------|


                             D                     D         
--------------------------------|---------------------------|
--------------------------3--3--|------------------3--------|
--------------------------2--2--|--0h2h0-----------2--------|
--0h3h0---0h3h0---0h3h0---0--0--|--------2h3h2h0---0--------|
--------3-------3-------3-x--x--|----------------3----------|
--------------------------------|---------------------------|


            D    D  D     D    D  D  D    D       A    A                
|----------------------|-----------------------|-----------------------|
|-----------3----3--3--|--3----3--3--3----3----|--2----2---------------|
|*----------2----2--2--|--2----2--2--2----2----|--2----2----4r-2-------|
|*----------0----0--0--|--0----0--0--0----0----|--2----2----------4----|
|----------------------|-----------------------|--0----0---------------|
|----------------------|-----------------------|-----------------------|


  A    A  A  A    A                       D         2x
-----------------------|----------------------------||
--2----2--2--2----2----|------------------3---------||
--2----2--2--2----2----|--0h2h0-----------2--------*||
--2----2--2--2----2----|--------2h3h2h0---0--------*||
--0----0--0--0----0----|----------------3-----------||
-----------------------|----------------------------||


                  D                           Bb          C        D          
---------------------------|---------------------------|--------------------||
------------------3--------|---------------------------|--------------------||
--0h2h0-----------2--------|--0h2h0-----------3--------|--5--------7--------||
--------2h3h2h0---0--------|--------2h3h2h0---3--------|--5--------7--------||
----------------3----------|----------------3-1--------|--3--------5--------||
---------------------------|---------------------------|--------------------||





Comments


Popular Taste tabs & chords
Blister On The Moon Chords
If I Dont Sing Ill Cry Tabs
Ill Remember Tabs
Lady Of Love Tabs
Morning Sun Tabs
Morning Sun 1 Tabs
Whats Going On Tabs
Blister On The Moon Ukulele


Song lyrics



↑ Back to top | Tablatures and chords are parodies/interpretations of the original songs. You may use it for private study, scholarship, research or language learning purposes only
© 2014 AZChords.com Contact us | Privacy policy | DMCA | Add/correct tabs | Request tabs | Top 50 tabs