» » »

Taste, Morning Sun Tabs (ver.2)

Artists:  A B C D E F G H I J K L M N O P Q R S T U V W X Y Z # 

Morning Sun Tabs (ver.2)

Taste Tabs
Rating:
0/5 (0 votes)
Morning Sun lessons Tabs too difficult? Try these video lessons and learn fast
                Main riff
x2-Intro
x8-Verse                        End of Verse
------------------------------||----------------------------------------------
------------------------------||----------------------------------------------
------------------------------||----------------------------------------------
-------------2------4h5p4---2-||----------4h5p4-----------4h5p4---------------
---0-0h2p0---0----0-------5-0-||--2h3p2---------5-2h3p2---------5-------------
-----------3------------------||--------3---------------3---------------------

Play after 2nd Verse                                                                             
Bridge
------------------|-----------------------------------------------------------
------------------|---------4-------------------4-----------------------------
---4--------------|-------4-------4-----4-----4-------4-----4-----4-----4-----
---4--------------|-----4-------4-----4-----4-------4-----4-----4-----4-------
---2--------------|---2-------2-----2-----2-------2-----2-----2-----2---------
------------------|-----------------------------------------------------------
                                                                              

---------------------------|--------2-----------------------------------------
---------------------------|------3---------2---------0-------4---------------
------4-----4-----4-----4--|----2---------2---------1---------4---------------
----4-----4-----4-----4----|--0---------2---------2-----------4---------------
--2-----2-----2-----2------|----------0---------2-------------2---------------
---------------------------|------------------0-------------------------------
            

comments powered by Disqus
↑ Back to top | Taste Tabs for Morning Sun. Lyrics for acoustic guitar and electric guitar. Tablatures and chords are parodies/interpretations of the original songs. You may use it for private study, scholarship, research or language learning purposes only