>
 >
Ill Remember

Ill Remember Guitar Tabs

Taste - Ill Remember chords, tabs, tablatures, lyrics

Guitar lessons | Add/correct | Request | Top 50 tabs Artists:  A B C D E F G H I J K L M N O P Q R S T U V W X Y Z 0-9

Ill Remember Guitar Tabs – Taste

CD, Sheet music, Poster

Do you like Ill Remember? Share with your friends now
Tabs
-----------------------------------------------------------------

      TASTE - I'LL REMEMBER (Gallagher) From ON THE BOARDS album.
              Released on January 1970.

-----------------------------------------------------------------








If you'll be around, 
When I've got a frown  
And the whole world looks upside down, 
I'll remember. 
If you'll be around, 
When there is no sound, 
I won't let you down, 
I'll give you so much love, 
That you'll remember. 

Ohhh...stand with me, 
When the sky looks black and amber, 
Look up above, 
The gods so full of anger. 

Let me hear you say, 
That your love won't fail, 
That I know my luck, 
Will never fail. No, never. 

If you'll be around, 
When I not around, 
And the whole world looks upside down, 
I'll remember.
 





                                     
  
e|------- ------- ------- -------|------- ------- ------- -------|
B|-------------------------------|-------------------------------|
G|-------------------------------|--------------------9---9---9--|
D|-------------------------------|--------------------9---9---9--|
A|-------------------------------|-------------------------------|
E|-------------------------------|-------------------------------|




e|------- ------- ------- -------|------- ------- ------- -------|
B|7---9-------9--~--------7------|7------------------------------|
G|7---9-------9--~--------7---9--|7---9-------9--~--------7------|
D|----------------------------9--|----9-------9--~--------7---5--|
A|-------------------------------|-------------------------------|
E|-------------------------------|-------------------------------|


e|------- ------- ------- -------|------- ------- ------- -------|
B|-------------------------------|-------------------------------|
G|7---7---7---7---7---7---7---7--|--------7-----------7----------|
D|7---7---7---7---7---7---7---7--|9P7-----7---9P7-----7---9P7----|
A|-------------------------------|----10----------10----------10-|
E|-------------------------------|-------------------------------|


e|------- ------- ------- -------|------- ------- ------- -------|
B|-------------------------------|-------------------------------|
G|7---7---7-------7---7---7------|7---9P7-----7---9P7-----7------|
D|7---7---7---5---7---7---7---5--|7-------10--7-------10--7---10-|
A|-------------------------------|-------------------------------|
E|-------------------------------|-------------------------------|




e|------- ------- ------- -------|------- ------- ------- -------|
B|-------------------------------|-------------------------------|
G|9------------------------------|--------------------9---9---9--|
D|9------------------------------|--------------------9---9---9--|
A|7---7---7---7---7---7---7---7--|7---7---7---7---7--------------|
E|0---0---0---0---0---0---0---0--|0---0---0---0---0--------------|




e|------- ------- ------- -------|------- ------- ------- -------|
B|7---9-------9--~--------7------|7------------------------------|
G|7---9-------9--~--------7---9--|7---9-------9--~--------7------|
D|----------------------------9--|----9-------9--~--------7---5--|
A|-------------------------------|-------------------------------|
E|-------------------------------|-------------------------------|




e|------- ------- ------- -------|------- ------- ------- -------|
B|-------------------------------|-------------------------------|
G|7---7---7---7---7---7---7---7--|7---7---7---7---7---7---7---7--|
D|7---7---7---7---7---7---7---7--|7---7---7---7---7---7---7---7--|
A|-------------------------------|-------------------------------|
E|-------------------------------|-------------------------------|




e|------- ------- ------- -------|------- ------- ------- -------|
B|-------------------------------|-------------------------------|
G|9------------------------------|--------------------9---9---9--|
D|9------------------------------|--------------------9---9---9--|
A|7------------------------------|-------------------------------|
E|0------------------------------|-------------------------------|
                                                          If you'll 



e|------- ------- ------- -------|------- ------- ------- -------|
B|7---9-------9--~--------7------|7------------------------------|
G|7---9-------9--~--------7---9--|7---9-------9--~--------7------|
D|----------------------------9--|----9-------9--~--------7---5--|
A|-------------------------------|-------------------------------|
E|-------------------------------|-------------------------------|
  be  around,             When I've got a frown           And the



e|------- ------- ------- -------|------- ------- ------- -------|
B|-------------------------------|-------------------------------|
G|7---7---7---7---7---7---7---7--|7---7---7---7---7---7---7---7--|
D|7---7---7---7---7---7---7---7--|7---7---7---7---7---7---7---7--|
A|-------------------------------|-------------------------------|
E|-------------------------------|-------------------------------|
  whole   world   looks       upside          down,       I'll re...



e|------- ------- ------- -------|------- ------- ------- -------|
B|-------------------------------|-------------------------------|
G|9------------------------------|--------------------9---9---9--|
D|9------------------------------|--------------------9---9---9--|
A|7------------------------------|-------------------------------|
E|-------------------------------|-------------------------------|
  member



e|------- ------- ------- -------|------- ------- ------- -------|
B|7---9-------9--~--------7------|7------------------------------|
G|7---9-------9--~--------7---9--|7---9-------9--~--------7------|
D|----------------------------9--|----9-------9--~--------7---5--|
A|-------------------------------|-------------------------------|
E|-------------------------------|-------------------------------|
  be  around,             When I've got a frown           And the



e|------- ------- ------- -------|------- ------- ------- -------|
B|-------------------------------|-------------------------------|
G|7---7---7---7---7---7---7---7--|7---7---7---7---7---7---7---7--|
D|7---7---7---7---7---7---7---7--|7---7---7---7---7---7---7---7--|
A|-------------------------------|-------------------------------|
E|-------------------------------|-------------------------------|
  whole   world   looks       upside          down,       I'll re...



e|------- ------- ------- -------|------- ------- ------- -------|
B|-------------------------------|-------------------------------|
G|9------------------------------|--------------------9---9---9--|
D|9------------------------------|--------------------9---9---9--|
A|7------------------------------|-------------------------------|
E|-------------------------------|-------------------------------|
  member                                                  If you'll



e|------- ------- ------- -------|------- ------- ------- -------|
B|7---9-------9--~--------7------|7------------------------------|
G|7---9-------9--~--------7---9--|7---9-------9--~--------7------|
D|----------------------------9--|----9-------9--~--------7---5--|
A|-------------------------------|-------------------------------|
E|-------------------------------|-------------------------------|
  be  around              When there is no   sound,       I won't 



e|------- ------- ------- -------|------- ------- ------- -------|
B|-------------------------------|-------------------------------|
G|7---7---7---7---7---7---7---7--|7---7---7---7---7---7---7---7--|
D|7---7---7---7---7---7---7---7--|7---7---7---7---7---7---7---7--|
A|-------------------------------|-------------------------------|
E|-------------------------------|-------------------------------|
  let you down,           give you so much    love, that you'll re..


                                               x  x     x

e|------- ------- ------- -------|------- ------- -------|
B|-------------------------------|-----------------------|
G|9------------------------------|----------------------4|
D|9------------------------------|-----------------------|
A|7------------------------------|----------------------2|
E|-------------------------------|-----------------------|
  member


  x  x  x x  x  x x  x  x x  x  x x    x       x   

e|------- ------- ------- -------|------- ------- ------- -------|
B|-------------------------------|-------------------------------|
G|4-----x-6-------7-------9------11----13------14---------------4|
D|-------------------------------|-------------------------------|
A|2-----x-4-------5-------7------|9----11------12---------------2|
E|-------------------------------|-------------------------------|





e|------- ------- ------- -------|------- ------- ------- -------|
B|-------------------------------|-------------------------------|
G|4-----x-6-------7-------9------11----13------14--------------13/
D|-------------------------------|-------------------------------|
A|2-----x-4-------5-------7------|9----11------12--------------11/
E|-------------------------------|-------------------------------|




e|------- ------- ------- -------|------- ------- ------- -------|
B|-------------------------------|-------------------------------|
G|14------13-----11-------9------|7-----9------4---------------13/
D|-------------------------------|-------------------------------|
A|12------11------9-------7------|5-----7------2---------------11/
E|-------------------------------|-------------------------------|




e|------- ------- ------- -------|------- ------- ------- ------0|
B|-------------------------------|------------------------------3/
G|14------13-----11-------9------|7-----9-----------------------4/
D|-------------------------------|-------------9-----------------|
A|12------11------9-------7------|5-----7------0-----------------|
E|-------------------------------|-------------7-----------------|
                                  Ooooooooooooooooooooooooooooooh



e|------- 0------ ------- -------|0------ ------4 ------- -------|
B|5-------3-----0---------0------|0-------------5----------------|
G|6-------4-----2/4-------2------|1-------------4----------------|
D|--------------4/6-------4------|2------------------------------|
A|-------------------------------|-------------------------------|
E|-------------------------------|-------------------------------|
  stand                   with me,                     When the sky  



e|------- 0------ ------- -------|0------ ------4 ------- -------|
B|5-------3-----0---------0------|0-------------5----------------|
G|6-------4-----2/4-------2------|1-------------4----------------|
D|--------------4/6-------4------|2------------------------------|
A|-------------------------------|-------------------------------|
E|-------------------------------|-------------------------------|
          looks   black   and amber,                           Look



e|------- 0------ ------- -------|0------ ------4 ------- -------|
B|5-----5-3-----0---------0------|0-------------5----------------|
G|6-----6-4-----2/4-------2------|1-------------4----------------|
D|--------------4/6-------4------|2------------------------------|
A|-------------------------------|-------------------------------|
E|-------------------------------|-------------------------------|
                       up above,                               The 



e|------- 0------ ------- -------|0------ ------4 ------- -------|
B|5-------3-----0---------0------|0-------------5----------------|
G|6-------4-----2/4-------2------|1-------------4----------------|
D|--------------4/6-------4------|2------------------------------|
A|-------------------------------|-------------------------------|
E|-------------------------------|-------------------------------|
  gods    so      full    of   anger. 
e|------- ------- ------- -------|------- ------- ------- -------|
B|-------------------------------|------------------------17P15--|
G|-------------------------------|---------------------16------16|
D|-------------------------------|-------------------------------|
A|-------------------------------|-------------------------------|
E|-------------------------------|-------------------------------|





e|------- 0------ ------- -------|0------ ------4 ------- -------|
B|5-------3-----0---------0------|0-------------5----------------|
G|6-------4-----2/4-------2------|1-------------4----------------|
D|--------------4/6-------4------|2------------------------------|
A|-------------------------------|-------------------------------|
E|-------------------------------|-------------------------------|

e|15B17-- ------- ------- -------|------- 15B17-- 15---12 -------|
B|-------------------------------|------------------------15---12|
G|-------------------------------|-----16------------------------|
D|-------------------------------|-------------------------------|
A|-------------------------------|-------------------------------|
E|-------------------------------|-------------------------------|




e|------- 0------ ------- -------|0------ ------4 ------- -------|
B|5-----5-3-----0---------0------|0-------------5----------------|
G|6-----6-4-----2/4-------2------|1-------------4----------------|
D|--------------4/6-------4------|2------------------------------|
A|-------------------------------|-------------------------------|
E|-------------------------------|-------------------------------|

e|------- ------- ------- -------|------- ------- ------- -------|
B|15B17-------------------15---12|15B17------------------------15B
G|-------------------------------|-------------------------------|
D|-------------------------------|-------------------------------|
A|-------------------------------|-------------------------------|
E|-------------------------------|-------------------------------|




e|------- 0------ ------- -------|0------ ------4 ------- -------|
B|5-------3-----0---------0------|0-------------5----------------|
G|6-------4-----2/4-------2------|1-------------4----------------|
D|--------------4/6-------4------|2------------------------------|
A|-------------------------------|-------------------------------|
E|-------------------------------|-------------------------------|

e|------- ------- ------- -------|------- ------- ------- -------|
B|17------15---12-15B17---15---12|15B17-------------------15---12|
G|-------------------------------|-------------------------------|
D|-------------------------------|-------------------------------|
A|-------------------------------|-------------------------------|
E|-------------------------------|-------------------------------|




e|------- 0------ ------- -------|0------ ------4 ------- -------|
B|5-----5-3-----0---------0------|0-------------5----------------|
G|6-----6-4-----2/4-------2------|1-------------4----------------|
D|--------------4/6-------4------|2------------------------------|
A|-------------------------------|-------------------------------|
E|-------------------------------|-------------------------------|

e|------- ------- ------- -------|------- ------- ------- -------|
B|-------------------------------|------------------------17P15--|
G|-------------------------------|---------------------16------16|
D|-------------------------------|-------------------------------|
A|-------------------------------|-------------------------------|
E|-------------------------------|-------------------------------|




e|------- 0------ ------- -------|0------ ------4 ------- -------|
B|5-----5-3-----0---------0------|0-------------5----------------|
G|6-----6-4-----2/4-------2------|1-------------4----------------|
D|--------------4/6-------4------|2------------------------------|
A|-------------------------------|-------------------------------|
E|-------------------------------|-------------------------------|

e|15B17-- 15---12 ------- -------|------- ------- ------- -------|
B|----------------15B17---15---12|-------------------------------|
G|-------------------------------|14B16-----------------------16R|
D|-------------------------------|-------------------------------|
A|-------------------------------|-------------------------------|
E|-------------------------------|-------------------------------|




e|------- 0------ ------- -------|0------ ------4 ------- -------|
B|5-------3-----0---------0------|0-------------5----------------|
G|6-------4-----2/4-----4-2------|1-------------4----------------|
D|--------------4/6-----6-4------|2------------------------------|
A|-------------------------------|-------------------------------|
E|-------------------------------|-------------------------------|

e|------- ------- ------- -------|------- ------- ------- -------|
B|-------------------------------|-------------------------------|
G|14---13--~---------------------|-------------------------------|
D|-------------------------------|-------------------------------|
A|-------------------------------|-------------------------------|
E|-------------------------------|-------------------------------|




e|------- 0------ ------- -------|0------ ------4 ------- -------|
B|5-------3-----0---------0------|0-------------5----------------|
G|6-------4-----2/4-------2------|1-------------4----------------|
D|--------------4/6-------4------|2------------------------------|
A|-------------------------------|-------------------------------|
E|-------------------------------|-------------------------------|

e|------- ------- ------- -------|------- ------- ------- -------|
B|-------------------------------|-------------------------------|
G|13---14-13---14-13---14-13---14|13---14-13---14-14B16----------|
D|-------------------------------|-------------------------------|
A|-------------------------------|-------------------------------|
E|-------------------------------|-------------------------------|




e|------- 0------ ------- -------|0------ ------4 ------- -------|
B|5-------3-----0---------0------|0-------------5----------------|
G|6-------4-----2/4-------2------|1-------------4----------------|
D|--------------4/6-------4------|2------------------------------|
A|-------------------------------|-------------------------------|
E|-------------------------------|-------------------------------|

e|------- ------- ------- -------|------- ------- ------- -------|
B|------------------------17P15--|17---15------15B17------15---12|
G|---------------------16------16|-------------------------------|
D|-------------------------------|-------------------------------|
A|-------------------------------|-------------------------------|
E|-------------------------------|-------------------------------|




e|------- 0------ ------- -------|0------ ------4 ------- -------|
B|5-------3-----0---------0------|0-------------5----------------|
G|6-------4-----2/4-------2------|1-------------4----------------|
D|--------------4/6-------4------|2------------------------------|
A|-------------------------------|-------------------------------|
E|-------------------------------|-------------------------------|

e|------- ------- ------- -------|------- ------- ------- -------|
B|-------------------------------|-------------------------------|
G|14B16--------------------------|-----12P11------11---12P11-----|
D|-------------------------------|-------------14--------------14|
A|-------------------------------|-------------------------------|
E|-------------------------------|-------------------------------|




e|------- 0------ ------- -------|0------ ------4 ------- -------|
B|5-----5-3-----0---------0------|0-------------5----------------|
G|6-----6-4-----2/4-------2------|1-------------4----------------|
D|--------------4/6-------4------|2------------------------------|
A|-------------------------------|-------------------------------|
E|-------------------------------|-------------------------------|

e|------- ------- ------- -------|------- ------- ------- -------|
B|-------------------------------|-------------15---------15---12|
G|11-----------------------------|-----14B16-----16R1412---------|
D|-------------------------------|---------------------14--------|
A|-------------------------------|-------------------------------|
E|-------------------------------|-------------------------------|




e|------- 0------ ------- -------|0------ ------4 ------- -------|
B|5-----5-3-----0---------0------|0-------------5----------------|
G|6-----6-4-----2/4-------2------|1-------------4----------------|
D|--------------4/6-------4------|2------------------------------|
A|-------------------------------|-------------------------------|
E|-------------------------------|-------------------------------|

e|------- ------- ------- -------|------- ------- ------- -------|
B|15B17--~----------------15---12|15B17------------------------15B
G|-------------------------------|-------------------------------|
D|-------------------------------|-------------------------------|
A|-------------------------------|-------------------------------|
E|-------------------------------|-------------------------------|




e|------- 0------ ------- -------|0------ ------- ------- -------|
B|5-------3-----0---------0------|0------------------------------|
G|6-------4-----2/4-------2------|1------------------------------|
D|--------------4/6-------4------|2------------------------------|
A|-------------------------------|2------------------------------|
E|-------------------------------|0------------------------------|

e|------- ------- ------- 15-----|------- ------- ------- -------|
B|17------15---12----------------|-------------------------------|
G|----------------14B16--------14|-------------------------------|
D|-------------------------------|-------------------------------|
A|-------------------------------|-------------------------------|
E|-------------------------------|-------------------------------|




e|--- -------|
B|-----------|
G|9---9---9--|
D|9---9---9--|
A|-----------|
E|-----------|




e|------- ------- ------- -------|------- ------- ------- -------|
B|7---9-------9--~--------7------|7------------------------------|
G|7---9-------9--~--------7---9--|7---9-------9--~--------7------|
D|----------------------------9--|----9-------9--~--------7---5--|
A|-------------------------------|-------------------------------|
E|-------------------------------|-------------------------------|




e|------- ------- ------- -------|------- ------- ------- -------|
B|-------------------------------|-------------------------------|
G|7---7---7---7---7---7---7---7--|--------7-----------7----------|
D|7---7---7---7---7---7---7---7--|9P7-----7---9P7-----7---9P7----|
A|-------------------------------|----10----------10----------10-|
E|-------------------------------|-------------------------------|




e|------- ------- ------- -------|------- ------- ------- -------|
B|-------------------------------|-------------------------------|
G|9------------------------------|--------------------9---9---9--|
D|9------------------------------|--------------------9---9---9--|
A|7---7---7----------------------|-------------------------------|
E|0---0---0----------------------|-------------------------------|
                                                          Let me 



e|------- ------- ------- -------|------- ------- ------- -------|
B|7---9-------9--~--------7------|7------------------------------|
G|7---9-------9--~--------7---9--|7---9-------9--~--------7------|
D|----------------------------9--|----9-------9--~--------7---5--|
A|-------------------------------|-------------------------------|
E|-------------------------------|-------------------------------|
  hear you    say,       That your love won't fail,       That I 




e|------- ------- ------- -------|------- ------- ------- -------|
B|-------------------------------|-------------------------------|
G|7---7---7---7---7---7---7---7--|7---7---7---7---7---7---7---7--|
D|7---7---7---7---7---7---7---7--|7---7---7---7---7---7---7---7--|
A|-------------------------------|-------------------------------|
E|-------------------------------|-------------------------------|
  know my luck,              Will never       fail            No, 



e|------- ------- ------- -------|------- ------- ------- -------|
B|-------------------------------|-------------------------------|
G|9------------------------------|--------------------9---9---9--|
D|9------------------------------|--------------------9---9---9--|
A|7------------------------------|-------------------------------|
E|0------------------------------|-------------------------------|
  never



e|------- ------- ------- -------|------- ------- ------- -------|
B|7---9-------9--~--------7------|7------------------------------|
G|7---9-------9--~--------7---9--|7---9-------9--~--------7------|
D|----------------------------9--|----9-------9--~--------7---5--|
A|-------------------------------|-------------------------------|
E|-------------------------------|-------------------------------|
  be  around,             When I've got a frown           And the



e|------- ------- ------- -------|------- ------- ------- -------|
B|-------------------------------|-------------------------------|
G|7---7---7---7---7---7---7---7--|7---7---7---7---7---7---7---7--|
D|7---7---7---7---7---7---7---7--|7---7---7---7---7---7---7---7--|
A|-------------------------------|-------------------------------|
E|-------------------------------|-------------------------------|
  whole   world   looks       upside          down,       I'll re...

                                               x  x     x

e|------- ------- ------- -------|------- ------- -------|
B|-------------------------------|-----------------------|
G|9------------------------------|----------------------4|
D|9------------------------------|-----------------------|
A|7------------------------------|----------------------2|
E|0------------------------------|-----------------------|
  member



e|------- ------- ------- -------|------- ------- ------- -------|
B|-------------------------------|-------------------------------|
G|4-----x-6-------7-------9------11----13------14---------------4|
D|-------------------------------|-------------------------------|
A|2-----x-4-------5-------7------|9----11------12---------------2|
E|-------------------------------|-------------------------------|





e|------- ------- ------- -------|------- ------- ------- -------|
B|-------------------------------|-------------------------------|
G|4-----x-6-------7-----x-9------11----13------14--------------13/
D|-------------------------------|-------------------------------|
A|2-----x-4-------5-----x-7------|9----11------12--------------11/
E|-------------------------------|-------------------------------|




e|------- ------- ------- -------|------- ------- ------- -------|
B|-------------------------------|-------------------------------|
G|14----x-13-----11-------9------|7-----9------4---------------13/
D|-------------------------------|-------------------------------|
A|12----x-11------9-------7------|5-----7------2---------------11/
E|-------------------------------|-------------------------------|




e|------- ------- ------- -------|------- ------- ------- -------|
B|-------------------------------|-------------------------------|
G|14----x-13-----11-------9------|7-----9------------------------|
D|-------------------------------|-------------9-----------------|
A|12----x-11------9-------7------|5-----7------0-----------------|
E|-------------------------------|-------------7-----------------|  
                                  

               x  x

e|------- ------- -------|
B|-----------------------|
G|-----------------------|
D|-----------------------|
A|-----------------------|
E|-----------------------|




e|------- ------- ------- -------|------- ------- ------- -------|
B|2------------------------------|-------------------------------|
G|4------------------------------|-------------------------------|
D|-------------------------------|-------------------------------|
A|2------------------------------|-------------------------------|
E|-------------------------------|-------------------------------|

e|------- ------- ------- -------|------- ------- ------- -------|
B|-------------------------------|-------------------------------|
G|-------------------------------|----1-------2------------------|
D|------------------------2------|4------------------------------|
A|2-------4-------5--------------|-------------------------------|
E|-------------------------------|-------------------------------|




e|------- ------- ------- -------|------- ------- ------- -------|
B|-------------------------------|-------------------------------|
G|-------------------------------|-------------------------------|
D|-------------------------------|-------------------------------|
A|-------------------------------|-------------------------------|
E|-------------------------------|-------------------------------|

e|------- ------- ------- -------|------- ------- ------- -------|
B|-------------------------------|-------------------------------|
G|-------------------------------|----1-------2------------------|
D|------------------------2------|4------------------------------|
A|2-------4-------5--------------|-------------------------------|
E|-------------------------------|-------------------------------|




e|------- ------- ------- -------|------- ------- ------- -------|
B|-------------------------------|-------------------------------|
G|--------7-\-6------------------|-------------------------------|
D|-------------------------------|-------------------------------|
A|--------5-\-4------------------|-------------------------------|
E|-------------------------------|-------------------------------|

e|------- ------- ------- -------|------- ------- ------- -------|
B|-------------------------------|-------------------------------|
G|-------------------------------|----1-------2------------------|
D|------------------------2------|4------------------------------|
A|2-------4-------5--------------|-------------------------------|
E|-------------------------------|-------------------------------|




e|------- ------- ------- -------|------- ------- ------- -------|
B|-------------------------------|-------------------------------|
G|7-\-6-/-7-\-4------------------|----------------------7\6-----/|
D|-------------------------------|-------------------------------|
A|5-\-4-/-5-\-2------------------|----------------------5\4-----/|
E|-------------------------------|-------------------------------|

e|------- ------- ------- -------|------- ------- ------- -------|
B|-------------------------------|-------------------------------|
G|-------------------------------|----1-------2------------------|
D|------------------------2------|4------------------------------|
A|2-------4-------5--------------|-------------------------------|
E|-------------------------------|-------------------------------|




e|------- ------- ------- -------|------- ------- ------- -------|
B|-------------------------------|---------------------5---------|
G|7---------------------7\6------|4------------------------------|
D|-------------------------------|---------------------2---------|
A|5---------------------5\4------|2------------------------------|
E|-------------------------------|-------------------------------|

e|------- ------- ------- -------|------- ------- ------- -------|
B|-------------------------------|-------------------------------|
G|-------------------------------|----1-------2------------------|
D|------------------------2------|4------------------------------|
A|2-------4-------5--------------|-------------------------------|
E|-------------------------------|-------------------------------|




e|------- ------- ------- -------|------- ------- ------- -------|
B|-------------------------------|-------------------------------|
G|6------------------------------|----------------------7\6------|
D|-------------------------------|-------------------------------|
A|4------------------------------|----------------------5\4------|
E|-------------------------------|-------------------------------|

e|------- ------- ------- -------|------- ------- ------- -------|
B|-------------------------------|-------------------------------|
G|-------------------------------|----1-------2------------------|
D|------------------------2------|4------------------------------|
A|2-------4-------5--------------|-------------------------------|
E|-------------------------------|-------------------------------|




e|------- ------- ------- -------|------- ------- ------- -------|
B|----------------5--------------|----------------------8--------|
G|7-------4----------------------|-------------------------------|
D|----------------2--------------|----------------------5--------|
A|5-------2----------------------|-------------------------------|
E|-------------------------------|-------------------------------|

e|------- ------- ------- -------|------- ------- ------- -------|
B|-------------------------------|-------------------------------|
G|-------------------------------|----1-------2------------------|
D|------------------------2------|4------------------------------|
A|2-------4-------5--------------|-------------------------------|
E|-------------------------------|-------------------------------|




e|------- ------- ------- -------|------- ------- ------- -------|
B|7---------------------8--------|5------------------------------|
G|-------------------------------|-------------------------------|
D|4---------------------5--------|2------------------------------|
A|-------------------------------|-------------------------------|
E|-------------------------------|-------------------------------|




e|------- ------- ------- -------|------- ------- ------- -------|
B|0------------------------------|-------------------------------|
G14\13---------------------------|-------------------------------|
D|-------------------------------|-------------------------------|
A12\11---------------------------|-------------------------------|
E|-------------------------------|-------------------------------|

e|------- ------- ------- -------|------- ------- ------- -------|
B|-------------------------------|-------------------------------|
G|-------------------------------|----1-------2------------------|
D|------------------------2------|4------------------------------|
A|2-------4-------5--------------|-------------------------------|
E|-------------------------------|-------------------------------|




e|------- ------- ------- -------|------- ------- ------- -------|
B|0------------------------------|-----------------------0-------|
G|7/9\7--------------------------|-----------------------14\13---|
D|-------------------------------|-------------------------------|
A|5/7\5--------------------------|-----------------------12\11---|
E|-------------------------------|-------------------------------|

e|------- ------- ------- -------|------- ------- ------- -------|
B|-------------------------------|-------------------------------|
G|-------------------------------|----1-------2------------------|
D|------------------------2------|4------------------------------|
A|2-------4-------5--------------|-------------------------------|
E|-------------------------------|-------------------------------|




e|------- ------- ------- -------|------- ------- ------- -------|
B|-------------------------------|----------------------0--------|
G|-------------------------------|----------------------7/9------|
D|-------------------------------|-------------------------------|
A|-------------------------------|----------------------5/7------|
E|-------------------------------|-------------------------------|

e|------- ------- ------- -------|------- ------- ------- -------|
B|-------------------------------|-------------------------------|
G|-------------------------------|----1-------2------------------|
D|------------------------2------|4------------------------------|
A|2-------4-------5--------------|-------------------------------|
E|-------------------------------|-------------------------------|




e|------- ------- ------- -------|------- ------- ------- -------|
B|0------------------------------|----------------------0--------|
G|7------------------------------|----------------------6/7------|
D|-------------------------------|-------------------------------|
A|5------------------------------|----------------------4/5------|
E|-------------------------------|-------------------------------|

e|------- ------- ------- -------|------- ------- ------- -------|
B|-------------------------------|-------------------------------|
G|-------------------------------|----1-------2------------------|
D|------------------------2------|4------------------------------|
A|2-------4-------5--------------|-------------------------------|
E|-------------------------------|-------------------------------|




e|------- ------- ------- -------|------- ------- ------- -------|
B|0------------------------------|------------------------0------|
G|6------------------------------|------------------------6\4----|
D|-------------------------------|-------------------------------|
A|4------------------------------|------------------------4\2----|
E|-------------------------------|-------------------------------|

e|------- ------- ------- -------|------- ------- ------- -------|
B|-------------------------------|-------------------------------|
G|-------------------------------|----1-------2------------------|
D|------------------------2------|4------------------------------|
A|2-------4-------5--------------|-------------------------------|
E|-------------------------------|-------------------------------|




e|------- ------- ------- -------|------- ------- ------- -------|
B|-------------------------------|-------------------------------|
G|-------------------------------|------------------------------4|
D|-------------------------------|-------------------------------|
A|-------------------------------|------------------------------2|
E|-------------------------------|-------------------------------|

e|------- ------- ------- -------|------- ------- ------- -------|
B|-------------------------------|-------------------------------|
G|-------------------------------|----1-------2------------------|
D|------------------------2------|4------------------------------|
A|2-------4-------5--------------|-------------------------------|
E|-------------------------------|-------------------------------|




e|------- ------- ------- -------|------- ------- ------- -------|
B|-------------------------------|-------------------------------|
G|4-------6-----x-7-------9------11----13------14--------------13/
D|-------------------------------|-------------------------------|
A|2-------4-----x-5-------7------|9----11------12--------------11/
E|-------------------------------|-------------------------------|


                                              (.

e|------- ------- ------- -------|------- ------- ------- -------|
B|-------------------------------|-------------------------------|
G|14------13-----11-------9------|7-----9------------------------|
D|-------------------------------|-------------9-----------------|
A|12------11------9-------7------|5-----7------0-----------------|
E|-------------------------------|-------------7-----------------|





                                  





        B  Bend
        R  Release
        /  Slide up
        \  Slide down
        H  Hammer-on
        P  Pull-off
        ~  Vibrato
        +  Harmonic
        x  Mute note
        .  Play note like a dot in standard notation
        ^  Ties two notes together
        (. Pause





Comments


Popular Taste tabs & chords
Blister On The Moon Chords
If I Dont Sing Ill Cry Tabs
Lady Of Love Tabs
Morning Sun Tabs
Morning Sun 1 Tabs
Whats Goin On Tabs
Whats Going On Tabs
Blister On The Moon Ukulele


Song lyrics



↑ Back to top | Tablatures and chords are parodies/interpretations of the original songs. You may use it for private study, scholarship, research or language learning purposes only
© 2014 AZChords.com Contact us | Privacy policy | DMCA | Add/correct tabs | Request tabs | Top 50 tabs