>
 >
If I Dont Sing Ill Cry

If I Dont Sing Ill Cry Guitar Tabs

Taste - If I Dont Sing Ill Cry chords, tabs, tablatures, lyrics

Guitar lessons | Add/correct | Request | Top 50 tabs Artists:  A B C D E F G H I J K L M N O P Q R S T U V W X Y Z 0-9

If I Dont Sing Ill Cry Guitar Tabs – Taste

CD, Sheet music, Poster

Do you like If I Dont Sing Ill Cry? Share with your friends now
Tabs
-------------------------------------------------------------------

    TASTE - IF I DON'T SING I'LL CRY (Gallagher) From ON THE BOARDS
            album. Released January 1970.
 
-------------------------------------------------------------------







You broke my heart, 
But you opened up my eyes, 
Yes I've been a fool, 
Now I realize. 
If I can't walk I'll fly, 
If I can't sing I'll cry. 

I hit the ground, 
Made me feel a whole lot better, 
Ain't no sense for her to go, 
Well, how can I just let her? 

Now if I can't walk I'll fly, 
If I can't sing I'll cry. 

You broke my heart, 
Put tears into my eyes, 
You must go your way, 
I know how fast I've crashed. 

Well if I can't walk I'll fly, 
If I can't sing I'll cry. 

If I can't walk I'll fly, 
Well if I can't sing I'll cry, 
If I can't sing I'll die.
 




    12/8


                                     
e|------- ------- ------- -------|------- ------- ------- -------|
B|-------------------------------|-------------------------------|
G|-------------------------------|-------------------------------|
D|-------------------------------|-------------------------------|
A|-------------------------------|-----------------------------9-|
E|-------------------------------|-----------------------------7-|
    
e|------- ------- ------- -------|------- ------- ------- -------|
B|-------------------------------|----------------7B8-----7B8R74-|
G|-------------------------------|----------------------5-------5|
D|-------------------------------|-------------------------------|
A|-------------------------------|-------------------------------|
E|-------------------------------|-------------------------------|




  C5      C6      C5      C6      F5      F6      F5      F6
e|------- ------- ------- -------|------- ------- ------- -------|
B|-------------------------------|-------------------------------|
G|-------------------------------|-------------------------------|
D|-----------------------------9/10---10-12---12-10---10-12------|
A10---10-12---12-10---10-12----7/|8----8--8----8--8----8--8------|
E|8----8--8----8--8----8--8------|-------------------------------|
      You broke my heart,                    But you opened up my 
e|------- ------- ------- -------|------- ------- ------- -------|
B|5------------------------------|-------------------------------|
G|-------------------------------|-------------------------------|
D|-------------------------------|-------------------------------|
A|-------------------------------|-------------------------------|
E|-------------------------------|-------------------------------|
      



  (C5/C6..)
e|------- ------- ------- -------|------- ------- ------- -------|
B|-------------------------------|-------------------------------|
G|-------------------------------|-------------------------------|
D|-------------------------------|-------------------------------|
A10---10-12---12-10---10-12---12-10---10-12---12-10---10-12------|
E|8----8--8----8--8----8--8----8-|8----8--8----8--8----8--8------|
  eyes, 



  (F5/F6..)
e|------- ------- ------- -------|------- ------- ------- -------|
B|-------------------------------|-------------------------------|
G|-------------------------------|-------------------------------|
D10---10-12---12-10---10-12---12-10---10-12---12-10---10-12------|
A|8----8--8----8--8----8--8----8-|8----8--8----8--8----8--8---10-|
E|-------------------------------|-----------------------------8-|
  Yes I've been a fool,                           Now  I    realize. 



  (C5/C6..)
e|------- ------- ------- -------|------- ------- ------- -------|
B|-------------------------------|-------------------------------|
G|-------------------------------|-------------------------------|
D|-------------------------------|-------------------------------|
A10---10-12---12-10---10-12---12-10---10-12---12-10---10-12------|
E|8----8--8----8--8----8--8----8-|8----8--8----8--8----8--8------|
                                                               If 


  Bb              C               F
e|6--6--6 6--6--6 8--8--8 8--8---|8--8--- 8------ 8------ 8--8---|
B|6--6--6-6--6--6-8--8--8-8--8---10-10---10------10------10-10---|
G|7--7--7-7--7--7-9--9--9-9--9---10-10---10------10------10-10---|
D|8--8--8-8--8--810-10-1010-10---10-10---10------10------10-10---|
A|8--8--8-8--8--810-10-1010-10---|8--8----8-------8-------8--8---|
E|6--6--6-6--6--6-8--8--8-8--8---|-------------------------------|
  I     can't     walk  I'll      fly,                         If 



  Bb              C               F
e|6--6--6 6--6--6 8--8--8 8--8--8|8--8--- 8--8--- 8--8--- 8------|
B|6--6--6-6--6--6-8--8--8-8--8--810-10---10-10---10-10---10------|
G|7--7--7-7--7--7-9--9--9-9--9--910-10---10-10---10-10---10------|
D|8--8--8-8--8--810-10-1010-10-1010-10---10-10---10-10---10------|
A|8--8--8-8--8--810-10-1010-10-10|8--8----8--8----8--8----8------|
E|6--6--6-6--6--6-8--8--8-8--8--8|-------------------------------|
  I     can't     sing  I'll      cry. 



  C5                              F5
e|------- ------- ------- -------|------- ------- ------- -------|
B|-------------------------------|-------------------------------|
G|-------------------------------10---10-10---10------10-------8-|
D10---10-10---10------10-------8-10---10-10---10-10H12----8H10---|
A10---10-10---10-10H12----8H10---|8----8--8----8-----------------|
E|8----8--8----8-----------------|-------------------------------|
       I hit the ground,                    Made me  
                                                  feel a whole lot 


  C5
e|------- ------- ------- -------|------- ------- ------- -------|
B|-------------------------------|-------------------------------|
G|-------------------------------|-------------------------------|
D10---10--10--10------10-------8-10---10-10---10------10-------8-|
A10---10--10--10-10H12----8H10---10---10-10---10-10H12----8H10---|
E|8----8---8---8-----------------|8----8--8----8-----------------|
  better,                                                   Ain't no



  F5
e|------- ------- ------- -------|------- ------- ------- -------|
B|-------------------------------|-------------------------------|
G10---10-10---10------10-------8-10---10-10---10------10-------8-|
D10---10-10---10-10H12----8H10---10---10-10---10-10H12----8H10---|
A|8----8--8----8-----------------|8----8--8----8-----------------|
E|-------------------------------|-------------------------------|
  sense for her to go,                      Well, how can I just let 



  C5
e|------- ------- ------- -------|------- ------- ------- -------|
B|-------------------------------|-------------------------------|
G|-------------------------------|-------------------------------|
D10---10--10--10------10-------8-10---10-10---10------10-------8-|
A10---10--10--10-10H12----8H10---10---10-10---10-10H12----8H10---|
E|8----8---8---8-----------------|8----8--8----8-----------------|
     her?                                                      If



  Bb              C               F
e|6--6--6 6--6--6 8--8--8 8--8--8|8--8--8 8--8--8 8--8--8 8----6-|
B|6--6--6-6--6--6-8--8--8-8--8--810-10-1010-10-1010-10-1010----6-|
G|7--7--7-7--7--7-9--9--9-9--9--910-10-1010-10-1010-10-1010----7-|
D|8--8--8-8--8--810-10-1010-10-1010-10-1010-10-1010-10-1010----8-|
A|8--8--8-8--8--810-10-1010-10-10|8--8--8-8--8--8-8--8--8-8----8-|
E|6--6--6-6--6--6-8--8--8-8--8--8|-----------------------------6-|
  I     can't     walk  I'll      fly,                         If 



  Bb              C               F
e|6--6--6 6--6--6 8--8--8 8--8--8|8------ 8--8--8 8--8--8 8------|
B|6--6--6-6--6--6-8--8--8-8--8--810------10-10-1010-10-1010------|
G|7--7--7-7--7--7-9--9--9-9--9--910------10-10-1010-10-1010------|
D|8--8--8-8--8--810-10-1010-10-1010------10-10-1010-10-1010------|
A|8--8--8-8--8--810-10-1010-10-10|8-------8--8--8-8--8--8-8------|
E|6--6--6-6--6--6-8--8--8-8--8--8|-------------------------------|
  I     can't     sing  I'll      cry. 




  (C5/C6..)                       (F5/F6..)    
e|------- ------- ------- -------|------- ------- ------- -------|
B|-------------------------------|-------------------------------|
G|9------------------------------10----------------------10------|
D10------------------------------10---10-12---12-10---10-12---12-|
A10---10-12---12-10---10-12---12-|8----8--8----8--8----8--8----8-|
E|8----8--8----8--8----8--8----8-|-------------------------------|

e|----8-- ------- ------- -------|------- 8------ ------- ---8---|
B|8------------------------------|8-----------------------8----11|
G10B12-----------------------10B12-------------------10B12-------|
D|-------------------------------|-------------------------------|
A|-------------------------------|-------------------------------|
E|-------------------------------|-------------------------------|





  C5      C6      C7      C6      C7      C6      C5      C6
e|------- ------- ------- -------|------- ------- ------- -------|
B|-------------------------------|-------------------------------|
G|-------------------------------|-------------------------------|
D10---10-12---12-13---13-12---12-13---13-12---12-10---10-12---12-|
A|8----8--8----8--8----8--8----8-|8----8--8----8--8----8--8----8-|
E|-------------------------------|-------------------------------|

e|------- ------- ------- -------|------- ------- ------- -------|
B|8------------------------------|-------------------------------|
G|--10B11-12121210B121212-10P8---|-----------5----5-----5-7P5-7B9|
D|----------------------------10-|------5/7-----7----7-------7---|
A|-------------------------------|-------------------------------|
E|-------------------------------|-------------------------------|




  (F5/F6..)
e|------- ------- ------- -------|------- ------- ------- -------|
B|-------------------------------|-------------------------------|
G|-----------------------------8-|-------------------------------|
D10---10-12---12-10---10-10H12---10---10-12---12-10---10-12---10-|
A|8----8--8----8--8----8---------|8----8--8----8--8----8--8----8-|
E|-------------------------------|-------------------------------|

e|5------ ------- ------- -------|------- ------- ------- -------|
B|-----8-------------------------|------6B8R6P4-6B8R6P4-6B8R6P4-6B
G|-------B9-R-7-5-5--~-----------|-----5-------5-------5-------5-|
D|-------------------------------|-------------------------------|
A|-------------------------------|-------------------------------|
E|-------------------------------|-------------------------------|




  (C5/C6..)
e|------- ------- ------- -------|------- ------- ------- -------|
B|-------------------------------|-------------------------------|
G|-------------------------------|-------------------------------|
D10---10-12------10---10-12---12-10---10-12---12-10--------------|
A|8----8--8-------8----8--8----8-|8----8--8----8--8--------------|
E|-------------------------------|-------------------------------|

e|------- ------- ------- -------|------- ------- ------- -------|
B|8R6P4-6B8-~-----------8R6P4----|-------------------------------|
G|-----5-------------------------|----5P3------------------------|
D|-------------------------------|--------5---3P2----------------|
A|-------------------------------|----------------5--------------|
E|-------------------------------|-------------------------------|




  Bb              C               F
e|6--6--6 6--6--6 8--8--8 8--8--8|8--8--8 8--8--8 8--8--8 8------|
B|6--6--6-6--6--6-8--8--8-8--8--810-10-1010-10-1010-10-1010------|
G|7--7--7-7--7--7-9--9--9-9--9--910-10-1010-10-1010-10-1010------|
D|8--8--8-8--8--810-10-1010-10-1010-10-1010-10-1010-10-1010------|
A|8--8--8-8--8--810-10-1010-10-10|8--8--8-8--8--8-8--8--8-8------|
E|6--6--6-6--6--6-8--8--8-8--8--8|-------------------------------|

e|------- 6------ ------- -------|------- ------- ------- -------|
B|------6---9--6-----------------|---B13---11P9------------------|
G|6-/-7---------7/9--~-----------|-------------10-12101010--~----|
D|-------------------------------|-------------------------------|
A|-------------------------------|-------------------------------|
E|-------------------------------|-------------------------------|




  Bb              C               F
e|6--6--6 6--6--6 8--8--8 8--8---|8--8--8 8--8--8 8--8--8 8------|
B|6--6--6-6--6--6-8--8--8-8--8---10-10-1010-10-1010-10-1010------|
G|7--7--7-7--7--7-9--9--9-9--9---10-10-1010-10-1010-10-1010------|
D|8--8--8-8--8--810-10-1010-10---10-10-1010-10-1010-10-1010------|
A|8--8--8-8--8--810-10-1010-10---|8--8--8-8--8--8-8--8--8-8------|
E|6--6--6-6--6--6-8--8--8-8--8---|-------------------------------|

e|------- ------- ------8 -------|------- ------- ------- -------|
B|------------------------11-8---|--------9---9H11---B---13------|
G|----------------8-/-9--------10|10-~-----10--------------------|
D|-------------------------------|-------------------------------|
A|-------------------------------|-------------------------------|
E|-------------------------------|-------------------------------|




  (C5/C6..)                       F5      F6      F7      F6
e|------- ------- ------- -------|------- ------- ------- -------|
B|-------------------------------|-------------------------------|
G|9------------------------------|-------------------------------|
D|8------------------------------|----------------3----3---------|
A10---10-12---12-10---10-12------|3----3--5----5--3----3--5----5-|
E|8----8--8----8--8----8--8------|1----1--1----1--1----1--1----1-|

e|8------ ------- ------- -------|8------ 8------ 8------ 8------|
B|-------------------------------|-------------------------------|
G|------------------------10-B-12|-------------------------------|
D|-------------------------------|-------------------------------|
A|-------------------------------|-------------------------------|
E|-------------------------------|-------------------------------|




  (C5/C6..)
e|------- ------- ------- -------|------- ------- ------- -------|
B|-------------------------------|-------------------------------|
G|------------------------9------|-------------------------------|
D|------------------------8------|-------------------------------|
A10---10-12---12-10---10-12---12-10------12---12-10---10-12-\----|
E|8----8--8----8--8----8--8----8-|8-------8----8--8----8--8-\----|

e|------- ------- ------- -------|------- ------- ------- -------|
B|-------------------------------|-------------------------------|
G|10-B-12-10-B-12----------------|10P8---------------------------|
D|-------------------------------|-------------------------------|
A|-------------------------------|-------------------------------|
E|-------------------------------|-------------------------------|




  F5
e|------- ------- ------- -------|------- ------- ------- -------|
B|-------------------------------|-------------------------------|
G|-------------------------------|-------------------------------|
D10---10-10---10-10---10-10---10-10---10-10---10-10---10-10---10-|
A|8----8--8----8--8----8--8----8-|8----8--8----8--8----8--8----8-|
E|-------------------------------|-------------------------------|

e|------- ------- ------- -------|------- ------- ------- -------|
B|-------------------------------|-------------------------------|
G|10B12---~----------------------|10B12-----------10B12---10B12--|
D|-------------------------------|-------------------------------|
A|-------------------------------|-------------------------------|
E|-------------------------------|-------------------------------|




  C5                      C6      C5
e|------- ------- ------- -------|------- ------- ------- -------|
B|-------------------------------|-------------------------------|
G|-------------------------------|-------------------------------|
D|-------------------------------|-----------------------------8-|
A10---10-10---10-10---10-12------10------10---10-10---10-10----8-|
E|8----8--8----8--8----8--8------|8-------8----8--8----8--8----6-|

e|------- ------- ------- -------|------- ------- ------- -------|
B|-------------------------------|-------------------------------|
G|9--~---------------------------|-------------------------------|
D|-------------------------------|10-\---------------------------|
A|-------------------------------|-------------------------------|
E|-------------------------------|-------------------------------|




  Bb              C               F
e|6--6--6 6------ 8--8--8 8------|8--8--8 8------ 8--8--8 8------|
B|6--6--6-6-------8--8--8-8------10-10-1010------10-10-1010------|
G|7--7--7-7-------9--9--9-9------10-10-1010------10-10-1010------|
D|8--8--8-8------10-10-1010------10-10-1010------10-10-1010------|
A|8--8--8-8------10-10-1010------|8--8--8-8-------8--8--8-8------|
E|6--6--6-6-------8--8--8-8------|-------------------------------|




  Bb              C               F
e|6--6--6 6--6--6 8--8--8 8--8--8|8--8--8 8--8--8 8--8--8 8----8-|
B|6--6--6-6--6--6-8--8--8-8--8--810-10-1010-10-1010-10-1010---10-|
G|7--7--7-7--7--7-9--9--9-9--9--910-10-1010-10-1010-10-1010---10-|
D|8--8--8-8--8--810-10-1010-10-1010-10-1010-10-1010-10-1010---10-|
A|8--8--8-8--8--810-10-1010-10-10|8--8--8-8--8--8-8--8--8-8----8-|
E|6--6--6-6--6--6-8--8--8-8--8--8|-------------------------------|




  C5                              F5
e|------- ------- ------- -------|------- ------- ------- -------|
B|-------------------------------|-------------------------------|
G|-------------------------------10---10-10---10------10-------8-|
D10---10-10---10------10-------8-10---10-10---10-10H12----8H10---|
A10---10-10---10-10H12----8H10---|8----8--8----8-----------------|
E|8----8--8----8-----------------|-------------------------------|
      You broke my heart,                     Put tears into my 



  C5
e|------- ------- ------- -------|------- ------- ------- -------|
B|-------------------------------|-------------------------------|
G|-------------------------------|-------------------------------|
D10---10--10--10------10-------8-10---10-10---10------10-------8-|
A10---10--10--10-10H12----8H10---10---10-10---10-10H12----8H10---|
E|8----8---8---8-----------------|8----8--8----8-----------------|
  eyes,  



  F5
e|------- ------- ------- -------|------- ------- ------- -------|
B|-------------------------------|-------------------------------|
G10---10-10---10------10-------8-10---10-10---10------10-------8-|
D10---10-10---10-10H12----8H10---10---10-10---10-10H12----8H10---|
A|8----8--8----8-----------------|8----8--8----8-----------------|
E|-------------------------------|-------------------------------|
  You  must go your way,                      I  know how fast I've 



  C5
e|------- ------- ------- -------|------- ------- ------- -------|
B|-------------------------------|-------------------------------|
G|-------------------------------|-------------------------------|
D10---10--10--10------10-------8-10---10-10---10------10-------8-|
A10---10--10--10-10H12----8H10---10---10-10---10-10H12----8H10---|
E|8----8---8---8-----------------|8----8--8----8-----------------|
  crashed.                                                  Well if



  Bb              C               F
e|6--6--6 6--6--- 8--8--8 8--8---|8------ 8------ 8------ 8------|
B|6--6--6-6--6----8--8--8-8--8---10------10------10------10------|
G|7--7--7-7--7----9--9--9-9--9---10------10------10------10------|
D|8--8--8-8--8---10-10-1010-10---10------10------10------10------|
A|8--8--8-8--8---10-10-1010-10---|8-------8-------8-------8------|
E|6--6--6-6--6----8--8--8-8--8---|-------------------------------|
  I     can't     walk  I'll      fly,                         If 



  Bb              C               F
e|6--6--6 6--6--- 8--8--8 8--8---|8------ 8------ 8----8- 8------|
B|6--6--6-6--6----8--8--8-8--8---10------10------10---10-10------|
G|7--7--7-7--7----9--9--9-9--9---10------10------10---10-10------|
D|8--8--8-8--8---10-10-1010-10---10------10------10---10-10------|
A|8--8--8-8--8---10-10-1010-10---|8-------8-------8----8--8------|
E|6--6--6-6--6----8--8--8-8--8---|-------------------------------|
  I     can't     sing  I'll      cry. 



  (C5/C6..)                       (F5/F6..)                    C5
e|------- ------- ------- -------|------- ------- ------- -------|
B|-------------------------------|-------------------------------|
G|-------------------------------|-------------------------------|
D|-------------------------------10---10-12------10---10-12------|
A10---10-12---12-10---10-12---10-|8----8--8-------8----8--8---10-|
E|8----8--8----8--8----8--8----8-|-----------------------------8-|





e|------- ------- ------- -------|------- ------- ------- -------|
B|-------------------------------|-------------------------------|
G|-------------------------------|-------------------------------|
D|-------------------------------|-------------------------------|
A10---10-10---10-10---10-10---10-10---10-10---10-10---10-10---10-|
E|8----8--8----8--8----8--8----8-|8----8--8----8--8----8--8----8-|

e|------- ------- ------- -------|------- ------- 8------ -------|
B|11------11---------------------|--------------8---11-8---------|
G|10B12---10B12-----------12R108-|---------10B12------------12R108
D|------------------------------10-------------------------------|
A|-------------------------------|-------------------------------|
E|-------------------------------|-------------------------------|




  (F5/F6..)
e|------- ------- ------- -------|------- ------- ------- -------|
B|-------------------------------|-------------------------------|
G|-------------------------------|-------------------------------|
D10---10-12----x-10----x-12----x-10----x-12----x-10---10-12----x-|
A|8----8--8----x--8----x--8----x-|8----x--8----x--8----8--8----x-|
E|-------------------------------|-------------------------------|

e|------- ------- ------- -------|------- ------- ------- -------|
B|-------------------------------|-------------------------------|
G|-------------------------------|--------9---10-B12-----B12-----|   
D|-------------------------------|-----10------------------------|
A|-------------------------------|-------------------------------|
E|-------------------------------|-------------------------------|




  (C5/C6..)
e|------- ------- ------- -------|------- ------- ------- -------|
B|-------------------------------|-------------------------------|
G|-------------------------------|-------------------------------|
D|-------------------------------|-------------------------------|
A10---10-12---10-10---10-12---10-10---10-12---10-10---10-10------|
E|8----8--8----8--8----8--8----8-|8----8--8----8--8----8--8------|
                                                               If



  Bb              C               F
e|6--6--6 6------ 8--8--8 8------|8--8--8 8--8--8 8--8--8 8------|
B|6--6--6-6-------8--8--8-8------10-10-1010-10-1010-10-1010------|
G|7--7--7-7-------9--9--9-9------10-10-1010-10-1010-10-1010------|
D|8--8--8-8------10-10-1010------10-10-1010-10-1010-10-1010------|
A|8--8--8-8------10-10-1010------|8--8--8-8--8--8-8--8--8-8------|
E|6--6--6-6-------8--8--8-8------|-------------------------------|
  I     can't     walk  I'll      fly,                         If 



  Bb              C               F
e|6--6--6 6--6--6 8--8--8 8--8--8|8--8--8 8--8--8 8--8--8 8------|
B|6--6--6-6--6--6-8--8--8-8--8--810-10-1010-10-1010-10-1010------|
G|7--7--7-7--7--7-9--9--9-9--9--910-10-1010-10-1010-10-1010------|
D|8--8--8-8--8--810-10-1010-10-1010-10-1010-10-1010-10-1010------|
A|8--8--8-8--8--810-10-1010-10-10|8--8--8-8--8--8-8--8--8-8------|
E|6--6--6-6--6--6-8--8--8-8--8--8|-------------------------------|
  I     can't     sing  I'll      cry. 


                                  (.
  Bb              C               D
e|6--6--6 6--6--6 8--8--8 8--8--8|10----- ------- ------- -------|
B|6--6--6-6--6--6-8--8--8-8--8--8|10-----------------------------|
G|7--7--7-7--7--7-9--9--9-9--9--9|11-----------------------------|
D|8--8--8-8--8--810-10-1010-10-10|12-----------------------------|
A|8--8--8-8--8--810-10-1010-10-10|12-----------------------------|
E|6--6--6-6--6--6-8--8--8-8--8--8|10-----------------------------|
  I     can't     sing  I'll      cry. 








        B  Bend
        R  Release
        /  Slide up
        \  Slide down
        H  Hammer-on
        P  Pull-off
        ~  Vibrato
        +  Harmonic
        x  Mute note
        .  Play note like a dot in standard notation
        ^  Ties two notes together
        (. Pause





Comments


Popular Taste tabs & chords
Blister On The Moon Chords
Ill Remember Tabs
Lady Of Love Tabs
Morning Sun Tabs
Morning Sun 1 Tabs
Whats Goin On Tabs
Whats Going On Tabs
Blister On The Moon Ukulele


Song lyrics



↑ Back to top | Tablatures and chords are parodies/interpretations of the original songs. You may use it for private study, scholarship, research or language learning purposes only
© 2014 AZChords.com Contact us | Privacy policy | DMCA | Add/correct tabs | Request tabs | Top 50 tabs