» » »

Tarrega Francisco, Estudio Tabs (ver.1)

Artists:  A B C D E F G H I J K L M N O P Q R S T U V W X Y Z # 

Estudio Tabs (ver.1)

Tarrega Francisco Tabs
 Rating:
4/5 (4 votes)
Estudio lessons Tabs too difficult? Try these video lessons and learn fast
1
                Lines: 369

Hello,

This is an exercise from Tarrega. It's my first tab posting,
so I hope I didn't make a lot of mistakes. The piece is in
some points fingerbreaker, though the rest of it is easily
performed when one can make quick chord changes.

If there are people out there interested in more Tarrega stuff,
I would try to find some time (it really takes a lot of time
to write this stuff down) to write more pieces.

Have a lot of fun.

Dimitris

P.S.Any classic music tab out there?

Notation:
In some critical points left-hand fingering is indicated.
Right-hand fingering: p=thumb, i=index, m=middle, a=annular(ring)
Cxx where xx is a roman number, means fret with the first finger
the xx fret (in most the cases not all the chords).


------------

Allegro
            4 3 2           4 1 3
          a m i   i m a m i a m i

------++--0-----------0-----2-----+-0-----------0-----2-------|
2-----||----2-------2---2-----1---|---2-------2---2-----1-----|
_-----||.-----2---2-------2-----2-|-----2---2-------2-----2---|
------||.-------2-----------------|-------2-------------------|
4---0-||--0-----------------------|-0-------------------------|
------++--------------------------+---------------------------|
        p     p

                   4 1 1   4 3 1 1 1 1 4 1 1 3 4 1
		   CII--- CVII---------CII---------

-0-----------0-----5-----+-9-----7-----5-----4-------|
---2-------2---2-----2---|---------------2-----5-----|
-----2---2-------2-----2-|---9-----7-------2-----2---|
-------2-----------------|-----7-----7---------------|
-0-----------------------|-0-------------------------|
-------------------------+---------------------------|


CII----------------CI-----CII----------------CI----

-2-----------2-----1-----+-2-----------2-----1-------|
---3-------3---3-----3---|---3-------3---3-----3-----|
-----2---2-------2-----2-|-----2---2-------2-----2---|
-------4-----------------|-------4-------------------|
-5-----------------------|-5-------------------------|
-------------------------+---------------------------|

                          1 3 1 3 4 1 3 2 1 1 1 1
CII---------------------- CVII---------------------

-2-----------2-----4-----+-7-------------------------|
---3-------3---3-----5---|---9--10-----5-----7-------|
-----2---2-------2-----2-|-----7--11-----9-----7-----|
-------4-----------------|-----------7-----7-----7---|
-5-----------------------|---------------------------|
-------------------------+---------------------------|

 2 1           3 1 4
                          CII----------------------

-0-----------0-----7-----+-5-----------4-----2-------|
---3-------3-----5-----5-|---2-------2---5-----3-----|
---------------7-----7---|-----2---2-------2-----2---|
-----2---2---------------|-------2-------------------|
-------------------------|-0-------------------------|
-4-----0-----------------+---------------------------|

                                         2 1 3
                          CII----------------------

-0-----------0-----7-----+-5-----------0-----2-------|
---3-------3-----5-----5-|---2-------2---2-----2-----|
---------------7-----7---|-----2---2-------2-----2---|
-----2---2---------------|-------2-------------------|
-------------------------|-0-------------------------|
-4-----0-----------------+---------------------------|

__________________________
|
| 1.

 1 1 2 4           3       4 3 1 1 1 3 1 1 1 1 1 1
CIV---------------------- CII-----------------------

-4-----------4-----5-----+-5p4-------4-4p2-------2---|
---4-------4---4-----4---|-----2---2-------2---2-----|
-----5---5-------5-----5-|-------2-----------2-------|
-------6-----------------|---------------------------|
-------------------------|---------------------------|
-4-----------------------+-0-----------2-------------|
                           p     p     p     p


                           1 2 3 4 1 3 4 1 1 2 3 4
CIV----------------------

-------------------------+-----------------------------|+
-7p5-------5-5p4---------|-----------------------------|
-----6---6-------5-------|---------------4/5-6-7-8-.---| (end of
-------6-----------6p4---|---------4-6-7-----------.---| Part 1.)
-----------------------6-|-4-5-6-7---------------------|
-4-----------4-----------+-----------------------------|+


__________________________
|
| 2.

 1 1 2 4           3       1 2 4 3           3
CIV---------------------- --------------------------

-4-----------4-----5-----+-4-----------4-----5-------|
---4-------4---4-----4---|---5-------5---5-----5-----|
-----5---5-------5-----5-|-----6---6-------6-----6---|
-------6-----------------|-------6-------------------|
-------------------------|-4-------------------------|
-4-----------------------+---------------------------|

CVII--------------------- ---------------------------

-7-----------7-----9-----+-7-----------7---7-12-7-12---|
---7-------7-- 7-----7---|---9-------9---9-------------|
-----8---8-------8-----8-|-----9---9-------------------|
-------9-----------------|-------9---------------------|
-------------------------|-----------------------------|
-7-----------------------+-7---------------------------|

-11p7---9p5---7p4---5p2---+-4p0---------4-----5-------|
------0---- 0-----0-----0-|-----0-----5---5-----5-----|
--------------------------|-------3/4-------4-----4---|
--------------------------|---------------------------|
--------------------------|---------------------------|
--------------------------+-0-------------------------|

CII---------------------- CIV-------------------

-2-----------4-----2-----+-7p4---------------4-7/12---|
---4-------4---4-----4---|-----5-----------5----------|
-----4/3/4-------4-----2-|-------4-------4------------|
-------------------------|---------6p5h6--------------|
-2-----------------------|----------------------------|
-------------------------+-0--------------------------|

-11p7---9p5---7p4---5p2---+-4p0---------4-----5-------|
------0---- 0-----0-----0-|-----0-----5---5-----5-----|
--------------------------|-------3/4-------4-----4---|
--------------------------|---------------------------|
--------------------------|---------------------------|
--------------------------+-0-------------------------|


CII----------------------

-2-----------4-----2-----+-0-----------0-----2-------|
---4-------4---4-----4---|---0-------0---0-----0-----|
-----4/3/4-------4-----2-|-----1---1-------1-----2---|
-------------------------|-------2-------------------|
-2-----------------------|---------------------------|
-------------------------+-0-------------------------|


-0---------------------+-------------0-----2-------|
---0-------0-----2-----|-0---------0---0-----0-----|
-----1---1---1-----2---|---1-----1-------1-----2---|
-------2-------2-----2-|-----2-2-------------------|
-----------------------|---------------------------|
-0---------------------+-0-------------------------|

                           (repeat twice)

-0-----------------------++----------------------------|+
---0-------0-0-----1-----||--0---------0-----1---------|
-----1---1-----1-----2---||.---1-----1---1-----2---.---|
-------2---------2-----2-||.-----2-2-------2-----2-.---|
-------------------------||----------------------------|
-0-----------------------++--0-------------------------|+

-------0---7-12-11-10------0-+-2-0-------------------------|+
-0---0---9------------12p9---|-----3-2-0-------------------|
---1-------------------------|-----------2-1-----------.---| (end of
-----------------------------|---------------4-2-0-----.---| Part 2.)
-----------------------------|---------------------4-2-----|
-0---------------------------+-0---------------------------|+

__________________________
|
| 3.

CII----------------------

-3-----------3-----5-----+-3-----2-----1-----2-------|
---2-------2---2-----2---|---3-----3-----3-----3-----|
-----2---2-------2-----2-|-----2-----2-----2-----2---|
-------2-----------------|---------------------------|
-0-----------------------|-0-------------------------|
-------------------------+---------------------------|

CVII------------------------ CV-----------------------

-7--------------------------+---------------------------|
---9----10------9-----7-----|-5-----------5-----7-------|
-----------11-----9-----7---|---6-------6---6-----6-----|
------7-------7-----7-----7-|-----7---7-------7-----7---|
----------------------------|-------7-------------------|
----------------------------+-0-------------------------|


CVII--------------------- CV-----------------------

-------------9-----7-----++--5-----------5-----7---------|+
-9---------9---9-----9---||----5-------5---7-----6-------|
---7-----7-------7-----7-||.-----6---6-------7-----7-.---|
-----9-------------------||.-------7-----------------.---|
-------7-----------------||--------------5---------------|
-0-----------------------++--5---------------------------|+


CIX------------------------------------------------

-9-----------9----10-----+-9-----------9----10-------|
---9-------9---9-----9---|--10------10--10----10-----|
----10--10------10----10-|----11--11------11----11---|
------11-----------------|------11-------------------|
-------------------------|-9-------------------------|
-9-----------------------+---------------------------|


CIX----------------------------------------- CII---

12----------12----14-----+12-----------9-----5-------|
---9-------9---9-----9---|--10------10--10-----2-----|
-----9---9-------9-----9-|-----9---9-------9-----2---|
------12-----------------|------11-------------------|
-------------------------|-0-------------------------|
-0-----------------------+---------------------------|

-4-----2-----0-----------+---------------------------|
---5-----3-----2---3-----|-2-----------2-----3-------|
-----2-----2-----2---4---|---2-------2---2-----2-----|
-0---------------------0-|-----2-1/2-------2-----2---|
-------------------------|---------------------------|
-------------------------+-0-------------------------|

                          CII-------------------------

-------------------------+------------------------------|
-2-----------2-----0-----|-------------2----(5p)3-------|
---1-------1---1-----1---|-2---------2---2--------2-----|
-----2-1/2-------2-----0-|---2-----2-------2--------4---|
-------------------------|-----4------------------------|
-0-----------------------+-5-----5----------------------|


                   CI---- CII-------------------------

-------------0-----1-----+-5----------------------------|
-2---------2---2 ----1---|---2-------2-2----(5p)3-------|
---2-----2-------2-----2-|-----2---2-----2--------2-----|
-----2-2-----------------|-------2---------2--------4---|
-------------------------|-0----------------------------|
-0-----------------------+------------------------------|


                           (three times)

                   CI---- CII---------

-------------0-----1-----++--5-----------0-----1---------|+
-2---------2---2 ----1---||----2-------2---2-----1-------|
---2-----2-------2-----2-||.-----2---2-------2-----2-.---|
-----2-2-----------------||.-------2-----------------.---|
-------------------------||--0---------------------------|
-0-----------------------++------------------------------|+

CV----------------------- -------------CII---------

-5-----5-----------5-----+---------------------------|
-----5---5-------5---5---|-------5-----------2-------|
---6-------6---6-------6-|-----6---6-------2---2-----|
-------------7-----------|---7-------7---2-------2---|
-------------------------|-7-----------4-------------|
-5-----------------------+---------------------------|

                          _
                         /.\

----------+-12----12----+-5-------------------------|
----------|--9-----9----|-5-------------------------|
----------|--7-----7----|-6-------------------------|
----------|-------------|---------------------------|
-0--------|-------------|-0-------------------------|
----------+--0-----0----+---------------------------|
            
Submit corrections

comments powered by Disqus
↑ Back to top | Tarrega Francisco Tabs for Estudio. Lyrics for acoustic guitar and electric guitar. 1 Tablatures and chords are parodies/interpretations of the original songs. You may use it for private study, scholarship, research or language learning purposes only