» » »

Tarja Turunen, I Feel Immortal Tabs (ver.1)

Artists:  A B C D E F G H I J K L M N O P Q R S T U V W X Y Z # 

I Feel Immortal Tabs (ver.1)

Tarja Turunen Tabs
Rating:
0/5 (0 votes)
I Feel Immortal lessons Tabs too difficult? Try these video lessons and learn fast
                

Intro:

E|--11---------------11-------------|
H|-----12-----9---------12-----9----|
G|--------11------9---------11----9-|
D|----------------------------------|
A|----------------------------------|
E|----------------------------------|


C#m
Whenever I wake up
                      A
I'm lost and always afraid
C#m
It's never the same place
                      A
I close my eyes to escape
The walls around me
F#m
And I drift away
Inside the silence
D
Overtakes the Pain
In my dreams


Refrain:
C#m            A
I feel immortal
E
I am not scared
H
No, I am not scared
C#m             A
I feel immortal
E
When I am there
H
When I am there


C#m A E H (is to play over the single notes)

E|-11------------------11----------------|
H|----12--9---------------12--9-----9----|
G|-----------11--9---------------11----9-|
D|-----------------13--------------------|
A|---------------------------------------|
E|---------------------------------------|


C#m
Whenever I wake up
                        A
The shards of us cut within
C#m
Always the same day
                     A
Frozen all in the fringe
        F#m
I surrender to the sleep
And leave the hurt behind me
D
There's no death to fear
In my dreams


Refrain

C#m A E H (is to play over the single notes)

E|-11------------------11-------------------|
H|----12--9---------------12--9-----9-------|
G|-----------11--9---------------11----9----|
D|-----------------13-----------------------|
A|------------------------------------------|
E|------------------------------------------|

C#m
So far or right beside me
A
So close but they can't find me
F#m
Slowly, time forgets me
H
I'm lonely, only dreaming

Refrain

C#m A E H (is to play over the single notes and the last lyric lines; but    it ends 
than it is shown here, you'll hear in the song)

E|-11------------------11-------------------|
H|----12--9---------------12--9-----9-------|
G|-----------11--9---------------11----9----|
D|-----------------13-----------------------|
A|------------------------------------------|
E|------------------------------------------|

I feel immortal
and I am not scared
            
Submit corrections

comments powered by Disqus
↑ Back to top | Tarja Turunen Tabs for I Feel Immortal. Lyrics for acoustic guitar and electric guitar. Tablatures and chords are parodies/interpretations of the original songs. You may use it for private study, scholarship, research or language learning purposes only