>
 >
Die Alive 1

Die Alive 1 Guitar Tabs

Tarja Turunen - Die Alive 1 chords, tabs, tablatures, lyrics

Guitar lessons | Add/correct | Request | Top 50 tabs Artists:  A B C D E F G H I J K L M N O P Q R S T U V W X Y Z 0-9

Die Alive 1 Guitar Tabs – Tarja Turunen

CD, Sheet music, Poster

Do you like Die Alive 1? Share with your friends now
TabsTabs v2

Intro

E|-------------|
B|----13--15~~-|
G|-12----------|
D|-------------|
A|-------------|
E|-------------|

E|---------------------------------------------------------------------|
B|---------------------------------------------------------------------|
G|-5-5-5-5-5-5----------------------3-3-3-3-3-3------------------------|
D|-5-5-5-5-5-5-5-5-5-5-5-5----------3-3-3-3-3-3-3-3-3-3-3-3------------|
A|-3-3-3-3-3-3-5-5-5-5-5-5----------1-1-1-1-1-1-3-3-3-3-3-3------------|
E|-3-3-3-3-3-3-3-3-3-3-3-3-3-4-3-1--1-1-1-1-1-1-1-1-1-1-1-1-1-0-1-3-4--|

E|---------------------------------------------------------------------|
B|---------------------------------------------------------------------|
G|--------------------------5-5/4--5-5/4-------------------------------|
D|-6-6-6-6-6-6-6-6-6-6-6-6--5-5/4--5-5/4-------------------------------|
A|-6-6-6-6-6-6-6-6-6-6-6-6--3-3/2--3-3/2-------------------------------|
E|-4-4-4-4-4-4-4-4-4-4-4-4---------------------------------------------|

Verse

	Open up the night, Led by just a feeling (without guitar)
	
	(guitar starts) All around is light, 
E|---------------------------------------------------------------------|
B|---------------------------------------------------------------------|
G|---------------------------------------------------------------------|
D|-3-3/2-2-2--3-3--3/5-5--5/6-6--6/6-6--6/8-8--8/8-8-8-----------------|
A|-3-3/2-2-2--3-3--3/5-5--5/6-6--6/6-6--6/8-8--8/8-8-8-----------------|
E|-1-1/0-0-0-1-1-1/3-3--3/4-4--4/4-4--4/6-6--6/6-6-6-----------------|

	Everything is healing
E|---------------------------------------------------------------------|
B|---------------------------------------------------------------------|
G|-------------------------------------------------------5-5/4--5-5/4--|
D|-3-3/2-2-2--3-3--3/5-5--5/6-6--6/6-6--6/8-8--8/8-8-8---5-5/4--5-5/4--|
A|-3-3/2-2-2--3-3--3/5-5--5/6-6--6/6-6--6/8-8--8/8-8-8---3-3/2--3-3/2--|
E|-1-1/0-0-0--1-1--1/3-3--3/4-4--4/4-4--4/6-6--6/6-8-6-----------------|

Chorus
		No more fate and no more mistery
E|---------------------------------------------------------------------|
B|---------------------------------------------------------------------|
G|-5-5-5-5-5-5----------------------3-3-3-3-3-3------------------------|
D|-5-5-5-5-5-5-5-5-5-5-5-5----------3-3-3-3-3-3-3-3-3-3-3-3------------|
A|-3-3-3-3-3-3-5-5-5-5-5-5----------1-1-1-1-1-1-3-3-3-3-3-3------------|
E|-------------3-3-3-3-3-3-3-4-3-1-------------1-1-1-1-1-1-1-0-1-3-4--|

		Even as time falls away i live my days

E|---------------------------------------------------------------------|
B|---------------------------------------------------------------------|
G|---------------------------------------------------5-5/4--5-5/4------|
D|-6-6-6-6-6-6-6-6-6-6-6-6-7-7-7-7-7-7-8-8-8-8-8-8---5-5/4--5-5/4------|
A|-6-6-6-6-6-6-6-6-6-6-6-6-7-7-7-7-7-7-8-8-8-8-8-8---3-3/2--3-3/2------|
E|-4-4-4-4-4-4-4-4-4-4-4-4-5-5-5-5-5-5-6-6-6-6-6-6---------------------|

		Every moment and its memory
E|---------------------------------------------------------------------|
B|---------------------------------------------------------------------|
G|-5-5-5-5-5-5----------------------3-3-3-3-3-3------------------------|
D|-5-5-5-5-5-5-5-5-5-5-5-5----------3-3-3-3-3-3-3-3-3-3-3-3------------|
A|-3-3-3-3-3-3-5-5-5-5-5-5----------1-1-1-1-1-1-3-3-3-3-3-3------------|
E|-------------3-3-3-3-3-3-3-4-3-1-------------1-1-1-1-1-1-1-0-1-3-4--|

		not only to survive: To die alive

E|---------------------------------------------------------------------|
B|---------------------------------------------------------------------|
G|---------------------------------------------------5-5/4--5-5/4------|
D|-6-6-6-6-6-6-6-6-6-6-6-6-7-7-7-7-7-7-8-8-8-8-8-8---5-5/4--5-5/4------|
A|-6-6-6-6-6-6-6-6-6-6-6-6-7-7-7-7-7-7-8-8-8-8-8-8---3-3/2--3-3/2------|
E|-4-4-4-4-4-4-4-4-4-4-4-4-5-5-5-5-5-5-6-6-6-6-6-6---------------------|

Verse

	Overwehelming love, heaven's just a feeling (without guitar)
	
	(guitar starts) Singing in my blood, 
E|---------------------------------------------------------------------|
B|---------------------------------------------------------------------|
G|---------------------------------------------------------------------|
D|-3-3/2-2-2--3-3--3/5-5--5/6-6--6/6-6--6/8-8--8/8-8-8-----------------|
A|-3-3/2-2-2--3-3--3/5-5--5/6-6--6/6-6--6/8-8--8/8-8-8-----------------|
E|-1-1/0-0-0-1-1-1/3-3--3/4-4--4/4-4--4/6-6--6/6-6-6-----------------|

	Keeping me from kneeling
E|---------------------------------------------------------------------|
B|---------------------------------------------------------------------|
G|-------------------------------------------------------5-5/4--5-5/4--|
D|-3-3/2-2-2--3-3--3/5-5--5/6-6--6/6-6--6/8-8--8/8-8-8---5-5/4--5-5/4--|
A|-3-3/2-2-2--3-3--3/5-5--5/6-6--6/6-6--6/8-8--8/8-8-8---3-3/2--3-3/2--|
E|-1-1/0-0-0--1-1--1/3-3--3/4-4--4/4-4--4/6-6--6/6-8-6-----------------|


Chorus
		No more fate and no more mistery
E|---------------------------------------------------------------------|
B|---------------------------------------------------------------------|
G|-5-5-5-5-5-5----------------------3-3-3-3-3-3------------------------|
D|-5-5-5-5-5-5-5-5-5-5-5-5----------3-3-3-3-3-3-3-3-3-3-3-3------------|
A|-3-3-3-3-3-3-5-5-5-5-5-5----------1-1-1-1-1-1-3-3-3-3-3-3------------|
E|-------------3-3-3-3-3-3-3-4-3-1-------------1-1-1-1-1-1-1-0-1-3-4--|

		Even as time falls away i live my days

E|---------------------------------------------------------------------|
B|---------------------------------------------------------------------|
G|---------------------------------------------------5-5/4--5-5/4------|
D|-6-6-6-6-6-6-6-6-6-6-6-6-7-7-7-7-7-7-8-8-8-8-8-8---5-5/4--5-5/4------|
A|-6-6-6-6-6-6-6-6-6-6-6-6-7-7-7-7-7-7-8-8-8-8-8-8---3-3/2--3-3/2------|
E|-4-4-4-4-4-4-4-4-4-4-4-4-5-5-5-5-5-5-6-6-6-6-6-6---------------------|

		Every moment and its memory
E|---------------------------------------------------------------------|
B|---------------------------------------------------------------------|
G|-5-5-5-5-5-5----------------------3-3-3-3-3-3------------------------|
D|-5-5-5-5-5-5-5-5-5-5-5-5----------3-3-3-3-3-3-3-3-3-3-3-3------------|
A|-3-3-3-3-3-3-5-5-5-5-5-5----------1-1-1-1-1-1-3-3-3-3-3-3------------|
E|-------------3-3-3-3-3-3-3-4-3-1-------------1-1-1-1-1-1-1-0-1-3-4--|

		not only to survive: To die alive

E|---------------------------------------------------------------------|
B|---------------------------------------------------------------------|
G|---------------------------------------------------5-5/4--5-5/4------|
D|-6-6-6-6-6-6-6-6-6-6-6-6-7-7-7-7-7-7-8-8-8-8-8-8---5-5/4--5-5/4------|
A|-6-6-6-6-6-6-6-6-6-6-6-6-7-7-7-7-7-7-8-8-8-8-8-8---3-3/2--3-3/2------|
E|-4-4-4-4-4-4-4-4-4-4-4-4-5-5-5-5-5-5-6-6-6-6-6-6---------------------|


Bridge: (orchestra and choir, no guitar)

	Die Alive
E|-----------------|
B|----13--15~~~~~--|
G|-12--------------|
D|-----------------|
A|-----------------|
E|-----------------|

Chorus
		No more fate and no more mistery
E|---------------------------------------------------------------------|
B|---------------------------------------------------------------------|
G|-5-5-5-5-5-5----------------------3-3-3-3-3-3------------------------|
D|-5-5-5-5-5-5-5-5-5-5-5-5----------3-3-3-3-3-3-3-3-3-3-3-3------------|
A|-3-3-3-3-3-3-5-5-5-5-5-5----------1-1-1-1-1-1-3-3-3-3-3-3------------|
E|-------------3-3-3-3-3-3-3-4-3-1-------------1-1-1-1-1-1-1-0-1-3-4--|

		Even as time falls away i live my days

E|---------------------------------------------------------------------|
B|---------------------------------------------------------------------|
G|---------------------------------------------------5-5/4--5-5/4------|
D|-6-6-6-6-6-6-6-6-6-6-6-6-7-7-7-7-7-7-8-8-8-8-8-8---5-5/4--5-5/4------|
A|-6-6-6-6-6-6-6-6-6-6-6-6-7-7-7-7-7-7-8-8-8-8-8-8---3-3/2--3-3/2------|
E|-4-4-4-4-4-4-4-4-4-4-4-4-5-5-5-5-5-5-6-6-6-6-6-6---------------------|

		Every moment and its memory
E|---------------------------------------------------------------------|
B|---------------------------------------------------------------------|
G|-5-5-5-5-5-5----------------------3-3-3-3-3-3------------------------|
D|-5-5-5-5-5-5-5-5-5-5-5-5----------3-3-3-3-3-3-3-3-3-3-3-3------------|
A|-3-3-3-3-3-3-5-5-5-5-5-5----------1-1-1-1-1-1-3-3-3-3-3-3------------|
E|-------------3-3-3-3-3-3-3-4-3-1-------------1-1-1-1-1-1-1-0-1-3-4--|

		not only to survive: To die alive

E|---------------------------------------------------------------------|
B|---------------------------------------------------------------------|
G|---------------------------------------------------5-5/4--5-5/4------|
D|-6-6-6-6-6-6-6-6-6-6-6-6-7-7-7-7-7-7-8-8-8-8-8-8---5-5/4--5-5/4------|
A|-6-6-6-6-6-6-6-6-6-6-6-6-7-7-7-7-7-7-8-8-8-8-8-8---3-3/2--3-3/2------|
E|-4-4-4-4-4-4-4-4-4-4-4-4-5-5-5-5-5-5-6-6-6-6-6-6---------------------|


Outro:
I wasn't able to find out the outro it's very hard... if you have it pls tell me...

End:
E|----------------------------------------------------|
B|----13--15-------13--15--------13--------15--13--13-|
G|-12-----------12-----------12------13---------------|
D|----------------------------------------------------|
A|----------------------------------------------------|
E|----------------------------------------------------|





Comments


Popular Tarja Turunen tabs & chords
Crimson Deep Bass Tabs
I Feel Immortal Chords
I Walk Alone Chords
I Walk Alone 1 Chords
Oasis Chords
The Reign Chords
I Feel Immortal Tabs
I Walk Alone Ukulele
The Reign Ukulele
Until My Last Breath Ukulele


Song lyrics



↑ Back to top | Tablatures and chords are parodies/interpretations of the original songs. You may use it for private study, scholarship, research or language learning purposes only
© 2014 AZChords.com Contact us | Privacy policy | DMCA | Add/correct tabs | Request tabs | Top 50 tabs