» » »

Tarja Turunen, Die Alive Tabs (ver.1)

Artists:  A B C D E F G H I J K L M N O P Q R S T U V W X Y Z # 

Die Alive Tabs (ver.1)

Tarja Turunen Tabs
 Rating:
4.3/5 (6 votes)
Die Alive lessons Tabs too difficult? Try these video lessons and learn fast
1
                 This is my first tab,and I've never tried to do it before,so forgive me if there 
is something wrong OK?
 
   Intro
E|----------------------------------------------------|
B|----13--15-------13--15--------13--------15--13--13-|
G|-12-----------12-----------12------13---------------|
D|----------------------------------------------------|
A|----------------------------------------------------|
E|----------------------------------------------------|

E|--------------------------------------------------------|
B|--------------------------------------------------------|
G|--------------------------------------------------------|
D|666666666666---------44444444444444-----555555555555555-|
A|666666666666---------44444444444442-----555555555555555-|
E|444444444444-3-5-4-2-22222222222222-0-2-333333333333333-|
  PM           . . . .                . .

E|------------------|
B|------------------|
G|-5-5/4--5-5/4-----|
D|-5-5/4--5-5/4-----|
A|-3-3/2--3-3/2-----|
E|------------------|

   Verse
E|-------------------------------------|
B|-------------------------------------|
G|-5-55-55-55-555-5/66-666-6/88-888-8--| x2
D|-5-55-55-55-555-5/66-666-6/88-888-8--|
A|-3-33-33-33-333-3/44-444-4/66-666-6--|
E|-------------------------------------|

E|-------------------|
B|-------------------|
G|-5-5/4--5-5/4-5/4--|
D|-5-5/4--5-5/4-5/4--|
A|-3-3/2--3-3/2-3/2--|
E|-------------------|

   Chorus
E|------------------------------------------------------------------------|
B|------------------------------------------------------------------------|
G|-5-5---3-333-------3-3--------------------------------------------------|x2
D|-5-5---3-333-------3-3----3-333-------4-444444444444455555444444--------|
A|-3-3---1-111-------1-1----3-333-------4-444444444444455555444444--------|
E|----111-----1-4-3-1---111-1-111-3-0-1-2-222222222222233333222222-1-4-3-1|
  PM  ...     . . . .   ...       . . .                            . . . .

E|------------------|
B|------------------|
G|-5-5/4--5-5/4-----|
D|-5-5/4--5-5/4-----|
A|-3-3/2--3-3/2-----|
E|------------------|

   Solo
E|-------------------------------------------------|
B|----13--15--------13----------------------13--15-|
G|-12-----------12------13---------------12--------|
D|-------------------------------------------------|
A|-------------------------------------------------|
E|-------------------------------------------------|

   Chorus
E|------------------------------------------------------------------------|
B|------------------------------------------------------------------------|
G|-5-5---3-333-------3-3--------------------------------------------------|x2
D|-5-5---3-333-------3-3----3-333-------4-444444444444455555444444--------|
A|-3-3---1-111-------1-1----3-333-------4-444444444444455555444444--------|
E|----111-----1-4-3-1---111-1-111-3-0-1-2-222222222222233333222222-1-4-3-1|
  PM  ...     . . . .   ...       . . .                            . . . .

   Outro
E|--------------------------------------------------------------------------|
B|--------------------------------------------------------------------------|
G|--------------------------------------------------------------------------|
D|-3-3333344-6-5-4-5-5555544-6-5-4-7-6-5-4-3333333333333355555666666-1-4-3-1|
A|-3-3333344-6-5-4-5-5555544-6-5-4-7-6-5-4-3333333333333355555666666-1-4-3-1|
E|-3-3333344-6-5-4-5-5555544-6-5-4-7-6-5-4-3333333333333355555666666-1-4-3-1|
  PM                                                                 . . . .

   End
E|--------------------------------------|
B|----13--15--------13------------------|
G|-12-----------12------13----13--12-12-|
D|--------------------------------------|
A|--------------------------------------|
E|--------------------------------------|


Intro
Verse
Chorus
Verse
Chorus
Solo
Chorus
Outro
End


Tarja Turunen - Die Alive

Open up the night
Led by just a feeling
All around is light
Everything is healing

No more fate and no more mistery
Even as time falls away I live my days
Every moment and its memory,
not only to survive: To die alive

Overwhelming love,
heaven's just a feeling
Singing in my blood
Keeping me from kneeling

No more fate and no more mistery
Even as time falls away I live my days
Every moment and its memory,
not only to survive: To die alive

Die alive

No more fate and no more mistery
Even as time falls away I live my days
Every moment and its memory,
not only to survive: To die alive. Die alive,die alive.
            
Submit corrections

comments powered by Disqus
↑ Back to top | Tarja Turunen Tabs for Die Alive. Lyrics for acoustic guitar and electric guitar. 1 Tablatures and chords are parodies/interpretations of the original songs. You may use it for private study, scholarship, research or language learning purposes only