» » »

Nasci Hoje Chords (ver.1)

Artists:  A B C D E F G H I J K L M N O P Q R S T U V W X Y Z # 

Nasci Hoje Chords (ver.1)

Tara Perdida
Rating:
0/5 (0 votes)

Hard to play? Try these video lessons and learn fast.
                
Chords used:

G = [320003]
D = [xx0232]
Em = [022000]
C = [x32010]


[intro]: G D Em C

[Riff1]

e|-----------------------------------------------------------|
B|-4-0-4-0-4-0-4-0-4-0-4-0-4-5-4-5---------------------------|
G|-----------------------------------------------------------|
D|-----------------------------------------------------------|
A|-----------------------------------------------------------|
E|-----------------------------------------------------------|

G           D              Em

 Nasci hoje tenho que aprender

         C               G

Em breve vou começar a andar

              D          Em

Passo a passo muito lentamente

                   C

Saber ler, compreender e continuar

G      D     Em       C

 Um percurso que vai durar

G      D     Em    C

  O resto da vida

G       D     Em      C    G

 Mas um dia a sorte irá chegar

    D         Em

E é aí que eu tenho de provar

  D

Então…

      C           D

Subir algo até poder

     Em         D

Esse aí não sou eu

     C           D

Eu lutei até morrer…

       G

Até morrer

[intro] [riff1] x4


G           D             Em

 Senti hoje tudo o que perdi

           C            G

Em breve o tempo vai apagar

              D            Em

Tantas mágoas tudo o que sofri

               C

Mas lutei, comecei a desconfiar


G         D     Em       C

 Que o percurso que vai durar

G      D     Em    C

  O resto da vida

G       D     Em     C     G

 tem caminhos que posso mudar

    D         Em

E é aí que eu tenho de provar

  D

Então…

      C           D

Subir algo até poder

     Em         D

Esse aí não sou eu

     C           D

Eu lutei até morrer…

     Em     D

Mais uma lição

        C           D

Estar a viver outra vez

      C

ter a solução

D                    G

 Mas não poder dizer

G Em C x2

G D Em C x4

[bass]

G|--------4---5-4---------7---5--4---------------|
D|--5-5-----5--------5-5----5--------------------|
A|-----------------------------------------------|
E|-----------------------------------------------|

G|--------4---5-4----------------2---------------|
D|--2-2-----2--------------5--------5------------|
A|-------------------3-3------3------------------|
E|-----------------------------------------------|

[solo]

e|-----------------------------------------------------------|
B|-4-0-4-0-4-0-4-0-4-0-4-0-4-5-4-5---------------------------|
G|-----------------------------------------------------------|
D|-----------------------------------------------------------|
A|-----------------------------------------------------------|
E|-----------------------------------------------------------|
            
Hard to play? Try these video lessons and learn fast. | Correct




comments powered by Disqus
↑ Back to top | Tablatures and chords are parodies/interpretations of the original songs. You may use it for private study, scholarship, research or language learning purposes only