>
 >
Grossa

Grossa Guitar Tabs

Tara Perdida - Grossa chords, tabs, tablatures, lyrics

Guitar lessons | Add/correct | Request | Top 50 tabs Artists:  A B C D E F G H I J K L M N O P Q R S T U V W X Y Z 0-9

Grossa Guitar Tabs – Tara Perdida

CD, Sheet music, Poster

Do you like Grossa? Share with your friends now
Tabs
Tuning: Standard (E A D G B e)
_______________________________

> Intro
Both Guitars

Part1
e|-------------------|
B|-------------------|
G|-------------------|
D|--3------5------7--|
A|--3------5------7--|
E|--1------3------5--|

Part2
e|-------------------------------------------|
B|-------------------------------------------|
G|-------------------------------------------|
D|--3-3-3-3-3--5-5-5-5-5--7-7-7-7-7-7-7-7-7--| x3
A|--3-3-3-3-3--5-5-5-5-5--7-7-7-7-7-7-7-7-7--|
E|--1-1-1-1-1--3-3-3-3-3--5-5-5-5-5-5-5-5-5--|

e|----------------|
B|----------------|
G|----------------|
D|--3-3-3-3----5--|
A|--3-3-3-3----5--|
E|--1-1-1-1----3--|


> Verse
Both Guitars
e|-------------------------------------------------|
B|-------------------------------------------------|
G|-------------------------------------------------|
D|--3-------------5-------------7-7-7-7-7-7-7-7-7--| x4
A|--3-------------5-------------7-7-7-7-7-7-7-7-7--|
E|--1-1-1-1-1-1-1-3-3-3-3-3-3-3-5-5-5-5-5-5-5-5-5--|
PM    . . . . . .   . . . . . .

> Chorus
e|----------------------------------------------------|
B|----------------------------------------------------|
G|--5-5-5-5-5-5-5-5-5-5-5-5---------------------------|
D|--5-5-5-5-5-5-5-5-5-5-5-5--7-7-7-7-7-7-7-7-7-7-7-7--| x2
A|--3-3-3-3-3-3-3-3-3-3-3-3--7-7-7-7-7-7-7-7-7-7-7-7--|
E|---------------------------5-5-5-5-5-5-5-5-5-5-5-5--|

> Intro Part2
> Verse
> Chorus
> Intro Part2

> Solo
Guitar 1 (rythm)
e|-------------------------------------------|
B|-------------------------------------------|
G|-------------------------------------------|
D|--3-3-3-3-3--5-5-5-5-5--7-7-7-7-7-7-7-7-7--| x4
A|--3-3-3-3-3--5-5-5-5-5--7-7-7-7-7-7-7-7-7--|
E|--1-1-1-1-1--3-3-3-3-3--5-5-5-5-5-5-5-5-5--|

e|----------------------------------------------------|
B|----------------------------------------------------|
G|--5-5-5-5-5-5-5-5-5-5-5-5---------------------------|
D|--5-5-5-5-5-5-5-5-5-5-5-5--7-7-7-7-7-7-7-7-7-7-7-7--| x3
A|--3-3-3-3-3-3-3-3-3-3-3-3--7-7-7-7-7-7-7-7-7-7-7-7--|
E|---------------------------5-5-5-5-5-5-5-5-5-5-5-5--|


Guitar 2 (Solo)
e|-----------------------|--------------------|-------------------------|----------------|
B|-----------------------|--------------------|-------------------------|----------------|
G|-----------------------|--------------------|--------------------7h5--|--7b---7b---7b--|
D|-----------5-----5--7--|--5h7--7----5h7--7--|-----------5-------------|----------------|
A|--7--5--7-----7--------|--------------------|--7--5--7-----7--5-------|----------------|
E|-----------------------|--------------------|-------------------------|----------------|
PM  .  .  .     .                                .  .  .     .

e|-----------------------|---------------------|---------------------|-----------------|
B|-----------------------|---------------------|------------8----10--|--10----10h8--8--|
G|-----------------------|--7b-------5h7h5--5--|--9----9-------------|-----------------|
D|-----------5-----5--7--|---------------------|---------------------|-----------------|
A|--7--5--7-----7--------|---------------------|---------------------|-----------------|
E|-----------------------|---------------------|---------------------|-----------------|
PM  .  .  .    .
                                                                          
e|------------------------|-------------------------|----------------------------|
B|------------------------|-------------------------|----------------------------|
G|--4--2--2--2------4--4--|--4--2h4h2--2--2------0--|--2----0-----0--------------|
D|------------------------|-------------------------|----------2-------2--0---2--|
A|------------------------|-------------------------|----------------------------|
E|------------------------|-------------------------|----------------------------|

                                   .PH (Pinch Harmonic)
e|------------------------|---------------------|-------------------|------------------------|
B|------------------------|---------------------|----------------8--|--10----10----10b---10--|
G|--0--2--2--2------0--2--|--5--7--7b-----------|--7--5-------------|------------------------|
D|------------------------|---------------------|-------------------|------------------------|
A|------------------------|---------------------|-------------------|------------------------|
E|------------------------|---------------------|-------------------|------------------------|

> Intro Part2 x6

> Outro
Both guitars
e|----------------------|
B|----------------------|
G|----------------------|
D|--3-------5--------7--| x3
A|--3-------5--------7--|
E|--1-------3--------5--|





Comments


Popular Tara Perdida tabs & chords
Lisboa Chords
Nasci Hoje Chords
30 Dias Tabs
Batata Frita Tabs
Chamo-Te A Razao Tabs
Desalinhado Tabs
Desalinhado 1 Tabs
Feia Tabs
Fizeram-se Amigos Tabs
Lisboa Ukulele


Song lyrics



↑ Back to top | Tablatures and chords are parodies/interpretations of the original songs. You may use it for private study, scholarship, research or language learning purposes only
© 2014 AZChords.com Contact us | Privacy policy | DMCA | Add/correct tabs | Request tabs | Top 50 tabs