» » »

Fizeram-se Amigos Tabs (ver.1)

Artists:  A B C D E F G H I J K L M N O P Q R S T U V W X Y Z # 

Fizeram-se Amigos Tabs (ver.1)

Tara Perdida
Rating:
0/5 (0 votes)

Hard to play? Try these video lessons and learn fast.
                Tuning: Standard (E A D G B e)

Obs: A musica n está 100% mas já da para entender qqr coisa!


 Mais uma tab de Tara Perdida hehe

=D


Intro:

"Estranha forma de aceitar.."
---------------------------|
---------------------------|
----7---7---6--4-----------|
----7---7---6--4--5--7-----|
----5---5---4--2--5--7-----|
------------------3--5-----|

"Essa calma é de estranhar.."

---------------------------|
---------------------------|
----7---4------------------|
----7---4--5--7------------|
----5---2--5--7------------|
-----------3--5------------|


"Fizeram-se amigos..."
-----------------------------|
-----------------------------|
--7--9--7--6--4--------------|
--7--9--7--6--4--5--7--9-----|
--5--7--5--4--2--5--7--9-----|
-----------------3--5--7-----|


---------------------------|
---------------------------|
--7--9--7--6--4--------7---|
--7--9--7--6--4--5--7--7---|
--5--7--5--4--2--5--7--5---|
-----------------3--5------|

Solo1:
[Guitarra Solo)
-----------------------------------------------------|
-----------------------------------------------------|
-0-9b--9--7------11-11-11-12-11-9--7-9---------------|
-------------9--------------------------7-7h9-7------|
-----------------------------------------------------|
-----------------------------------------------------|

-----------------------------------------------------|
-----------------------------------------------------|
-0-9b--9--7------11-11-11-12-14-16-14-9-9-7-9--------|
-------------9---------------------------------------|
-----------------------------------------------------|
-----------------------------------------------------|

[Guitarra Ritmo]
--------------------------|
--------------------------|
----7------6--4-----------|
----7------6--4--5--7-----|
----5------4--2--5--7-----|
-----------------3--5-----|

-----------------------------------------------------|
-----------------------------------------------------|
-0-9b--9--7------0 9b-9-7----------------------------|
-------------9------------9--------------------------|
-----------------------------------------------------|
-----------------------------------------------------|

-----------------------------10----------------------|
-----------------------------------------------------|
-0-9b--9--7------0 9b-9-7----------------------------|
-------------9------------9--------------------------|
-----------------------------------------------------|
-----------------------------------------------------|

--------------------------|
--------------------------|
----7---4-----------------|
----7---4--5--7-----------|
----5---2--5--7-----------|
-----------3--5-----------|

-----------------------------|
-----------------------------|
--7--9--7--6--4--------------|
--7--9--7--6--4--5--7--9-----|
--5--7--5--4--2--5--7--9-----|
-----------------3--5--7-----|

---------------------------|
---------------------------|
--------7--6--4------------|
--5--7--7--6--4--5--7--9---|
--5--7--5--4--2--5--7--9---|
--3--5-----------3--5--7---|


Solo2:

-----------------------------------------------------|
-----------------------------------------------------|
-0-9b--9--7------11-11-11-12-11-9--7-9---------------|
-------------9--------------------------7-7h9-7------|
-----------------------------------------------------|
-----------------------------------------------------|

-----------------------------------------------------|
-----------------------------------------------------|
-0-9b--9--7------11-11-11-12-14-16-14-9-9-7-9--------|
-------------9---------------------------------------|
-----------------------------------------------------|
-----------------------------------------------------|

E o resto é smpr a bombar xD
            
Hard to play? Try these video lessons and learn fast. | Correct




comments powered by Disqus
↑ Back to top | Tablatures and chords are parodies/interpretations of the original songs. You may use it for private study, scholarship, research or language learning purposes only