>
 >
Desalinhado 1

Desalinhado 1 Guitar Tabs

Tara Perdida - Desalinhado 1 chords, tabs, tablatures, lyrics

Guitar lessons | Add/correct | Request | Top 50 tabs Artists:  A B C D E F G H I J K L M N O P Q R S T U V W X Y Z 0-9

Desalinhado 1 Guitar Tabs – Tara Perdida

CD, Sheet music, Poster

Do you like Desalinhado 1? Share with your friends now
TabsTabs v2
Tuning: Standard (E A D G B e)
_______________________________

Just listen to the song to get the right timing

> Intro
Guitar 1
e|-------------------------------------------|
B|-------------------------------------------|
G|--777---7-999---9-111111-12-11-77-7-12-11--| > 111111 = 11 11 11
D|------7-------7----------------------------|
A|-------------------------------------------|
E|-------------------------------------------|

e|---------------------------------------------|
B|---------------------------------------------|
G|--777---7-999---9-111111-12-11-77-7-9-7-6-7--|
D|------7-------7------------------------------|
A|---------------------------------------------|
E|---------------------------------------------|

Guitar 2
e|------------------|
B|------------------|
G|--7*--------------|
D|--7*--7*--9*--5*--|
A|--5*--7*--9*--5*--|
E|------5*--7*--3*--|

* Play a several times


> Verse

Guitar 1
e|------------------------------------------------------------------------------|
B|------------------------------------------------------------------------------|
G|--7~--(this is the last note of the intro; let ring while verse beggins)------|
D|------------------------------------------------------------------------------|
A|------------------------------------------------------------------------------|
E|------------------------------------------------------------------------------|

Guitar 2
e|------------|
B|--7~--------|
G|--7~--------|
D|--5~--(2~)--| Play the note between () only on the second time
A|------------|

then

Both guitars
e|---------------|
B|---------------|
G|---------------|
D|--7*--5*-(5*)--| Play the note between () only on the second time
A|--7*--5*-(5*)--|
E|--5*--3*-(3*)--|


> Chorus

Both guitars
e|------------------|
B|------------------|
G|--7*--------------| x2
D|--7*--7*--9*--5*--|
A|--5*--7*--9*--5*--|
E|------5*--7*--3*--|

e|------------------|
B|------------------|
G|------------------|
D|--9*--7*--5*--7*--| x2 (In palm mute)
A|--9*--7*--5*--7*--|
E|--7*--5*--3*--5*--|

> Verse
> Chorus

> Break
Guitar 1
e|--------------------------------------------|
B|--------------------------------------------|
G|------9-7----7-9-7------9-7---1212-1111-99--|
D|--777------7--------777---------------------|
A|--------------------------------------------|
E|--------------------------------------------|

e|---------------------------------------------------|
B|---------------------------------------------------|
G|---------------------------------------------------|
D|------7-9-7---1212-11-9-----7-9-7---1212--1111-9~--|
A|--777------7------------777------------------------|
E|---------------------------------------------------|

Guitar 2
e|--------------|
B|--------------|
G|--7-----------| let ring the notes
D|--7--7--9--5--|
A|--5--7--9--5--|
E|-----5--7--3--|

then

Both guitars
e|------------------------------------------------------------------|
B|------------------------------------------------------------------|
G|--7-77-7-77-7--9-99-9-99-9--11-1111-11-1111-11-12-1212-11-1111-9--|
D|------------------------------------------------------------------|
A|--5-55-5-55-5--7-77-7-77-7--9--9-9--9--9-9--9--10-1010--9-9-9--7--|
E|------------------------------------------------------------------|
      ..   ..      ..   ..       . .     . .        .  .    . .       PM


e|------------------------------------------------------------------|
B|------------------------------------------------------------------|
G|--7-77-7-77-7--9-99-9-99-9--11-1111-11-1111-11-12-1212-11-1111-9--|
D|------------------------------------------------------------------|
A|--5-55-5-55-5--7-77-7-77-7--9--9-9--9--9-9--9--10-1010--9-9-9--7--|
E|------------------------------------------------------------------|
      ..   ..      ..   ..       . .     . .        .  .    . .       PM

e|-------------------------------------------------------------|
B|-------------------------------------------------------------|
G|--12-1212-11-1111-14-1414--12-1212-11-14-1414--12-1212-11-9--|
D|-------------------------------------------------------------|
A|--10-1010--9-9-9--12-1212--10-1010-9--12-1212--10-1010-9--7--|
E|-------------------------------------------------------------|
       . .     . .     . .      . .        . .      . .          PM

> Chorus (4 times the first riff, 2 the second)

> Outro
e|------|                       e|-----|
B|------|                       B|-----|
G|--7~--|                       G|--7--|
D|--7~--| Let ring, then play:  D|--7--| and cut off
A|--5~--|                       A|--5--|
E|------|                       E|-----|





Comments


Popular Tara Perdida tabs & chords
Lisboa Chords
30 Dias Tabs
Agora Eu Tabs
Batata Frita Tabs
Chamo-Te A Razao Tabs
Desalinhado Tabs
Feia Tabs
Quanto Mais Eu Grito Intro Tabs
Lisboa Ukulele
Nasci Hoje Ukulele


Song lyrics



↑ Back to top | Tablatures and chords are parodies/interpretations of the original songs. You may use it for private study, scholarship, research or language learning purposes only
© 2014 AZChords.com Contact us | Privacy policy | DMCA | Add/correct tabs | Request tabs | Top 50 tabs