» » »

Dentro (ReacçãO Final) Tabs (ver.1)

Artists:  A B C D E F G H I J K L M N O P Q R S T U V W X Y Z # 

Dentro (ReacçãO Final) Tabs (ver.1)

Tara Perdida
Rating:
0/5 (0 votes)

Hard to play? Try these video lessons and learn fast.
                Tuning: Standard (E A D G B e)


Obs: A musica n está 100% mas já da para entender qqr coisa!


Intro:

--------------------------|
--------------------------|
--------------------------|
----------10-10-10--------| 4x
---10-10------------------|
--------------------------|


--------------------------|
--------------------------|
--------------------------|
-------7--5--4--5--4------| 2x
----5~-----------------5--|
--------------------------|

--------------------------|
--------------------------|
--------------------------|
--------------------------|
--------9--10--9--5--7--5-|
--5--7--------------------|

--------------------------|
--------------------------|
--------------------------|
-------7--5--4--5--4------|
----5~-----------------5--|
--------------------------|

--------------------------|
--------------------------|
--------------------7-----|
-----7--5--4--5--4--------|
--------------------------|
--------------------------|

--------------------------|
--------------------------|
--------------------------|
--------------------------|
----5-7-9-7-5-7-5-7-------|
--------------------------|

main riff

"Se eu podesse..."
----------------------------|
----------------------------|
----7--------------------7--|
----7---5----9---5---7---7--| 4x
----5---5----9---5---7---5--|
--------3----7---3---5------|

Algumas partes contêm Palm Mute.


"Terapias..."

---------------------------|
---------------------------|
---------------------------|
--9----7---5---7---9-------| 2x
--9----7---5---7---9-------|
--7----5---3---5---7-------|


--------------------------|
--------------------------|
--------------------------|
----------10-10-10--------| 4x
---10-10------------------|
--------------------------|


"Se eu podesse.."

----------------------------|
----------------------------|
----------------------------|
---------4--------7---5--4--|
-5(hold)----5---------------|
----------------------------|

----------------------------|
----------------------------|
----7--------------------7--|
----7---5----9---5---7---7--| 2x
----5---5----9---5---7---5--|
--------3----7---3---5------|


"Terapias.."
---------------------------|
---------------------------|
---------------------------|
--9----7---5---7---9-------| 2x
--9----7---5---7---9-------|
--7----5---3---5---7-------|

"Reacção Final que me faz levar.."

----------------------------|
----------------------------|
----7--------------------7--|
----7---5----9---5---7---7--| 4x
----5---5----9---5---7---5--|
--------3----7---3---5------|



Solo:

(É o que se arranja lool se alguem souber diga-me como é o solo)
--------------------------|
--------------------------|
--------------------------|
--------------------------|
---------4*----5*---7*----|
-----5*-------------------|

* várias vezes

--------------------------|
--------------------------|
--------------------------|
-------7--5--4--5--4------|
----5~-----------------5--|
--------------------------|

--------------------------|
--------------------------|
--------------------7-----|
-----7--5--4--5--4--------|
--------------------------|
--------------------------|

--------------------------|
--------------------------|
--------------------------|
--------------------------|
--------9--10--9--5--7--5-|
--5--7--------------------|

Final:
----------------------------|
----------------------------|
----7--------------------7--|
----7---5----9---5---7---7--| 
----5---5----9---5---7---5--|
--------3----7---3---5------|
            
Hard to play? Try these video lessons and learn fast. | Correct




comments powered by Disqus
↑ Back to top | Tablatures and chords are parodies/interpretations of the original songs. You may use it for private study, scholarship, research or language learning purposes only