» » »

When Bass tabs (ver.1)

Artists:  A B C D E F G H I J K L M N O P Q R S T U V W X Y Z # 

When Bass tabs (ver.1)

Taproot
Rating:
0/5 (0 votes)

Tabs too difficult? Try these video lessons and learn fast.
                Tuning: Standart (E A D G)



\ - slide down


Intro

G|--------|--------|--------|--------|
D|---7--7-|---5----|---7--7-|---5----|
A|--7--7-7|--5-----|--7--7-7|--5-----|
E|5-------|3-----3\|5-------|3-----3\|


Verse

G|--------|--------|--------|--------| x3
D|---7--7-|---5----|---7--7-|---5----|
A|--7--7-7|--5-----|--7--7-7|--5-----|
E|5-------|3-----3\|5-------|3-----3\|

G|--------|--------|--------|--------|
D|---7--7-|---5----|---7--7-|---5----|
A|--7--7-7|--5-----|--7--7-7|--5-----|
E|5-------|7-----7\|5-------|3-----3\|


Bridge

G|----------|--------2-|----------|----------|
D|--5-4-----|--5-4-54-4|--5-4-----|--5-4-----|
A|2-----0000|2---------|2-----0000|2-----0000|
E|----------|----------|----------|----------|


Chorus

G|------------|------------|------------|------------|
D|------------|------------|------------|------------|
A|------------|2222-20-----|------------|------------|
E|2222-03222-2|------------|2222-03222-2|0-0--0---0-5|

G|------------|------------|------------|------------|
D|------------|------------|------------|------------|
A|------------|2222-20-----|------------|------------|
E|2222-03222-2|------------|2222-03222-2|0-0--0------|


-> After that play Verse, Bridge and Chorus again.


Interlude

G|----------|----------|----------|------------| x2
D|----------|--454-----|2-2-2-----|2----5-2---5|
A|5---------|5-----7535|----------|---3-----3--|
E|-----3----|----------|------3---|------------|

G|--------|---------| x6
D|--------|-----5555|
A|555---55|5--------|
E|---333--|-000-----|


Chorus

G|------------|------------|------------|------------|
D|----REST----|------------|------------|------------|
A|------------|2222-20-----|------------|------------|
E|------------|------------|2222-03222-2|0-0--0---0-5|

G|------------|------------|------------|------------|
D|------------|------------|------------|------------|
A|------------|2222-20-----|------------|------------|
E|2222-03222-2|------------|2222-03222-2|0-0--0---0-5|

G|------------|------------|
D|------------|------------|
A|------------|------------|
E|2222-03222-2|0-0--0---0-5|

G|------------|------------|------------|------------|
D|------------|------------|------------|------------|
A|------------|2222-20-----|------------|------------|
E|2222-03222-2|------------|2222-03222-2|0-0--0------|



Thats it...souds fine to me but I think Phil plays it with a
5-string Bass Guitar...but If u like it rate it!
            
Tabs too difficult? Try these video lessons and learn fast.




comments powered by Disqus
↑ Back to top | Tablatures and chords are parodies/interpretations of the original songs. You may use it for private study, scholarship, research or language learning purposes only