» » »

Taproot, The Song Is I Tabs (ver.1)

Artists:  A B C D E F G H I J K L M N O P Q R S T U V W X Y Z # 

The Song Is I Tabs (ver.1)

Taproot Tabs
 Rating:
4/5 (4 votes)
The Song Is I lessons Tabs too difficult? Try these video lessons and learn fast
1
                intro

|-------------------------------------------------|
|-------------------------------------------------|
|----------9----9-----9----9----------------------|                          
|------ 5-----5-----7----7------------------------|  
|------7-7---7-7---5-5--5-5-----------------------|                             
|----------------------------5-5------------------| 

verse

|-------------------------------------------------|
|-------------------------------------------------|
|----9---9---------9---9--------------------------|
|--5---5---------7---7----------------------------|
|-7-7-7-7-------5-5-5-5---------------------------|
|----------5-5-----------5-5----------------------|


strum at the end of the verse before the chorus
D|---9----|
A|---7----|
E|---5----|
A|--------|


play this right after the intro, listen to the song for timing and struming

|-------------------------------------------------|
|-------------------------------------------------|
|-------------------------------------------------|
|-2222222--2222222--------------------------------|
|-2222222--0000000--------------------------------| 
|-2222222--0000000--------------------------------|



chorus (listen to the song for the timing and struming)

|-------------------------------------------------|
|-------------------------------------------------|
|-------12-12-12-12-------11-11-11-11-------------|
|-2222---------------2222-------------------------|
|-2222--10-10-10-10--0000--9--9--9--9-------------|
|-2222---------------0000-------------------------|


the bridge is just what u play after the intro over and over again.  if u listen hard 
there is another guitar playin in the back round with either a wah or a phaser goin slow.
here is that tab.
again listen to the song for the timing and struming, the struming is fast

|-------------------------------------------------|
|-------------------------------------------------|
|--9-----12-----7---------------------------------|
|-------------------------------------------------|
|--7-----10-----5---------------------------------|
|-------------------------------------------------|
            
Submit corrections

comments powered by Disqus
↑ Back to top | Taproot Tabs for The Song Is I. Lyrics for acoustic guitar and electric guitar. 1 Tablatures and chords are parodies/interpretations of the original songs. You may use it for private study, scholarship, research or language learning purposes only