» » »

Taproot, Smile Tabs (ver.3)

Artists:  A B C D E F G H I J K L M N O P Q R S T U V W X Y Z # 

Smile Tabs (ver.3)

Taproot Tabs
 Rating:
4/5 (4 votes)
Smile lessons Tabs too difficult? Try these video lessons and learn fast
1
                
Tuning: (A,E,A,D,G,B)

INTRO:
|--------------------------|
|--------------------------|
|-66-6--6666--6666---5---4-|
|-44-4-04444-04444-0-3-0-2-|
|-44-4-04444-04444-0-3-0-2-|
|--------------------------|

MAIN RIFF:
|--------------------------|
|--------------------------|
|-66-6--66-6--66-6---5---4-|
|-44-4-044-4-044-4-0-3-0-2-|
|-44-4-044-4-044-4-0-3-0-2-|
|-44-4-044-4-044-4-0-3-0-2-|

VERSE:
|--------------------|
|--------------------|
|-10\7-9-9--10\7-9-9-|
|--X-X-X-X---X-X-X-X-|
|--7\5-7-7---7\5-7-7-|
|--------------------|

VERSE B:
|----------------|
|----------------|
|----------------|
|-3-0-2--3-0-2-2-|
|-3-0-2--3-0-2-2-|
|-3-0-2--3-0-2-2-|

VERSE C:
|-5-55555-55555-55555-5555-|
|-3-33333-33333-33333-3333-|
|-3-33333-33333-33333-3333-|
|--------------------------|
|--------------------------|
|--------------------------|

CHORUS:
|-------------------------5-55555-55555-55555-5555-|
|-------------------------3-33333-33333-33333-3333-|
|-------------------------3-33333-33333-33333-3333-|
|-77-7-77-7-7-88-8-88-8-8--------------------------|
|-55-5-55-5-5-66-6-66-6-6--------------------------|
|-55-5-55-5-5-66-6-66-6-6--------------------------|

INTERLUDE:
|---3-----------------------------3---------3---------3---------3------|
|---2---------7---------7---------2---------2---------2---------2------|
|-------------6---------6----------------------------------------------|
|----------------------------------------------------------------------|
|-11-11-1-1-44-44-4-4-55-55-5-5-22-22-2-2-11-11-1-1-11-11-1-1-00-00-0-0|
|-11-11-1-1-44-44-4-4-55-55-5-5-22-22-2-2-11-11-1-1-11-11-1-1-00-00-0-0| 

FILL:
|----3--------|
|----2--------|
|-------------|
|-------------|
|-00---00-0-0-|
|-00---00-0-0-|

INTERLUDE 2:
|-------------------------------------------------------------|
|-------------------------------------------------------------|
|-------------------------------------------------------------|
|-11-1-11-1-1-44-4-44-4-4-55-5-55-5-5-22-2-22-2-2-11-1-11-1-1-|
|-11-1-11-1-1-44-4-44-4-4-55-5-55-5-5-22-2-22-2-2-11-1-11-1-1-|
|-11-1-11-1-1-44-4-44-4-4-55-5-55-5-5-22-2-22-2-2-11-1-11-1-1-|

|-------------------------------------|
|-------------------------------------|
|-------------------------------------|
|-11-1-11-1-1-00-0-00-0-0-00-0-00-0-0-|
|-11-1-11-1-1-00-0-00-0-0-00-0-00-0-0-|
|-11-1-11-1-1-00-0-00-0-0-00-0-00-0-0-|
            
Submit corrections

comments powered by Disqus
↑ Back to top | Taproot Tabs for Smile. Lyrics for acoustic guitar and electric guitar. 1 Tablatures and chords are parodies/interpretations of the original songs. You may use it for private study, scholarship, research or language learning purposes only