» » »

Taproot, Smile Tabs (ver.1)

Artists:  A B C D E F G H I J K L M N O P Q R S T U V W X Y Z # 

Smile Tabs (ver.1)

Taproot Tabs
 Rating:
4/5 (4 votes)
Smile lessons Tabs too difficult? Try these video lessons and learn fast

WWW.AZCHORDS.COM | Taproot Tabs - Smile Tabs (ver. 1)


"Smile"
      Taproot

A Tuning(ADGCFA)


     RIFF A:

    A|----------------------------------------------|
    F|----------------------------------------------|
    C|----------------------------------------------|
    G|---6-6-6-6-6-6-6-6-6-6-6-6-6-6-6-6-6-6-5-2-4--|
    D|---6-6-6-6-6-6-6-6-6-6-6-6-6-6-6-6-6-6-5-2-4--|
    A|---4-0-4-4-4-4-4-0-4-4-4-4-4-0-4-4-4-4-3-0-2--|

      RIFF B:

    A|--------------|
    F|--------------|
    C|---12\9-11-11-|
    G|--------------|
    D|---10\7--9--9-|
    A|--------------|

     RIFF C:

    A|------------------|
    F|------------------|
    C|------------------|
    G|---5-2-4--5-2-4-4-|
    D|---5-2-4--5-2-4-4-|
    A|---3-0-2--3-0-2-2-|

      RIFF D:

    A|---7-7-7-7-7-7-7-7-7-7-7-7-7-7-7-7-7-7-|
    F|---5-5-5-5-5-5-5-5-5-5-5-5-5-5-5-5-5-5-|
    C|---5-5-5-5-5-5-5-5-5-5-5-5-5-5-5-5-5-5-|
    G|---------------------------------------|
    D|---------------------------------------|
    A|---------------------------------------|

      RIFF E:

    A|--------------------------------------7-7-7-7-7-7-7-7-7-7-7-7-7-7-7-7-7-|
    F|--------------------------------------5-5-5-5-5-5-5-5-5-5-5-5-5-5-5-5-5-|
    C|--------------------------------------5-5-5-5-5-5-5-5-5-5-5-5-5-5-5-5-5-|
    G|---9-9-9-9-9-9-9-10-10-10-10-10-10-10-----------------------------------|
    D|---7-7-7-7-7-7-7--8--8--8--8--8--8--8-----------------------------------|
    A|---5-5-5-5-5-5-5--6--6--6--6--6--6--6-----------------------------------|

     RIFF F:

    A|----------------------------------------------|
    F|----------------------------------------------|
    C|----------------------------------------------|
    G|---------------------------------------5-2-4--|
    D|---------------------------------------5-2-4--|
    A|---4-0-4-4-4-4-4-0-4-4-4-4-4-0-4-4-4-4-3-0-2--|

     RIFF G:

    A|-----------|
    F|-----------|
    C|-----------|
    G|----5-2-4--|
    D|----5-2-4--|
    A|----3-0-2--|

     RIFF H:

    A|------0---------------0------------0----------0-----------0----------0-------|
    F|------0---------------0------------0----------0-----------0----------0-------|
    C|------0---------------0------------0----------0-----------0----------0-------|
    G|---3-3-3-3-3-3-3-3-6-6-6-6-6-6-6-7-7-7-7-7-7-4-4-4-4-4-4-3-3-3-3-3-2-2-2-2-2-|
    D|---3-3-3-3-3-3-3-3-6-6-6-6-6-6-6-7-7-7-7-7-7-4-4-4-4-4-4-3-3-3-3-3-2-2-2-2-2-|
    A|---1-1-1-1-1-1-1-1-4-4-4-4-4-4-4-5-5-5-5-5-5-2-2-2-2-2-2-1-1-1-1-1-0-0-0-0-0-|

     RIFF I:

    A|-----------------------------------------------------------------------------|
    F|-----------------------------------------------------------------------------|
    C|-----------------------------------------------------------------------------|
    G|---3-3-3-3-3-3-3-3-6-6-6-6-6-6-6-7-7-7-7-7-7-4-4-4-4-4-4-3-3-3-3-3-2-2-2-2-2-|
    D|---3-3-3-3-3-3-3-3-6-6-6-6-6-6-6-7-7-7-7-7-7-4-4-4-4-4-4-3-3-3-3-3-2-2-2-2-2-|
    A|---1-1-1-1-1-1-1-1-4-4-4-4-4-4-4-5-5-5-5-5-5-2-2-2-2-2-2-1-1-1-1-1-0-0-0-0-0-|

     RIFF J:

    A|---0------|
    F|---0------|
    C|---6---6--|
    G|---7----7-|
    D|---7------|
    A|---5------|
            
Submit corrections

↑ Back to top | Taproot Tabs for Smile. Lyrics for acoustic guitar and electric guitar. Tablatures and chords are parodies/interpretations of the original songs. You may use it for private study, scholarship, research or language learning purposes only