» » »

Taproot, She Tabs (ver.1)

Artists:  A B C D E F G H I J K L M N O P Q R S T U V W X Y Z # 

She Tabs (ver.1)

Taproot Tabs
 Rating:
4/5 (4 votes)
She lessons Tabs too difficult? Try these video lessons and learn fast
1
                (Intro)
                         SHE
intro
       Guitar 1 heavy
d------------------------------------------------------|I
a------------------------------------------------------|I
f-2--2---2-2------3--3--------5--5---------------------|I
c-0--0---0-0------1--1--------3--3---------------------|I
g-0--0---0-0------1--1--------3--3------X2-------------|I
c-0--0---0-0------1--1--------3--3---------------------|I
Guitar 2 clean

d------------------------------------------------------|I
a--3--3---3--1--1----3--3--3----6--6---6---------------|I
f---2--2--------------2--2-------5--5------------------|I
c-0--0--0-----------1--1--1----3--3--3------X2---------|I
g------------------------------------------------------|I
c------------------------------------------------------|I

this is the intro....se ci siete italiani che vi piace il new metal e venite da cagliari 
provincia contattatemi mi piacciono i breaking benjamin soprattutto e anche i taproot 
of the year el nino  crossfade  12 stones seether  e tanti altri!!!!!
            
Submit corrections

comments powered by Disqus
↑ Back to top | Taproot Tabs for She. Lyrics for acoustic guitar and electric guitar. 1 Tablatures and chords are parodies/interpretations of the original songs. You may use it for private study, scholarship, research or language learning purposes only