» » »

Poen Tabs (ver.1)

Artists:  A B C D E F G H I J K L M N O P Q R S T U V W X Y Z # 

Poen Tabs (ver.1)

Taproot
Rating:
0/5 (0 votes)

Tabs too difficult? Try these video lessons and learn fast.
                Poem
Tuning - ADGCFA (on 6 string, Or just tune 7 string down 1 step and 
don't use high e)

Intro - Clean, or w/ slight distortion

Pt.1
C--6--7--9--9-|-6--7->-9-9--9-9--9->10-
G--4--7--7--9-|-4--7->-9-9--9-9--9->8--
D--x--5--x--7-|-x--5->-7-7--7-7--7->8--
A-------------|------------------------

Pt.2 (Heavy Distortion)
G--4-4--4-4--4->5-
D--4-4--4-4--4->5-
A--2-2--2-2--2->3-

Pre-verse
Clean, or slight dist.
C--9-9--9-9--12->11-
G--9-9--9-9--12->11-
D--7-7--7-7--10->9--
A-------------------

Verse Pt.1 - Clean or slight dist.
C--9-9--9-9--9->10-
G--9-9--9-9--9->8--
D--7-7--7-7--7->8--

Pt.2 (or pre-chorus) - Heavy Dist.
G--4-4--4-4--4->5-
D--4-4--4-4--4->5-
A--2-2--2-2--2->3-

Chorus is just the intro with distortion.

2nd verse is the same, as is the chorus.

After 2nd chorus the heavy part when Stephen says, "BREAK" is just:
G--0444-
D--0444-
A--0222-
(^ hammer on after the open notes^)

Then the chorus repeats, but it is clean up untill he says "In case of fire, BREAK"
When he says "BREAK" Hit the distortion and continue from there. Then end the song 
on the 2/4 powerhcord.
            
Tabs too difficult? Try these video lessons and learn fast.


comments powered by Disqus
↑ Back to top | Tablatures and chords are parodies/interpretations of the original songs. You may use it for private study, scholarship, research or language learning purposes only