>
 >
Poem To Myself

Poem To Myself Bass Tabs

Taproot - Poem To Myself chords, tabs, tablatures, lyrics

Guitar lessons | Add/correct | Request | Top 50 tabs Artists:  A B C D E F G H I J K L M N O P Q R S T U V W X Y Z 0-9

Poem To Myself Bass Tabs – Taproot

CD, Sheet music, Poster

Do you like Poem To Myself? Share with your friends now
Bass TabsChords
Instrument Used: 4 String Bass, Stadard Tuning 
Notes: Purpose of this tab was to be relatively accurate, easy, and fun, not necessarily perfect.  Send corrections to 

  
[[[KEY]]] -----> X= Rest /= Slide Down \= Slide Up ~= Let Note Ring *Special Notation


Intro is guitar only, but I get bored so i play this...

Intro* 
G|-11--11--7--7--7--14--14--9--9--9--11--11--5--5--7--------------------------|X1
A|--9---9--5--5--5--12--12--7--7--7---9---9--7--7--7--5h7-7-7-7-5h7-7-7-7-10--|
D|----------------------------------------------------------------------------|
E|----------------------------------------------------------------------------|

[*Yes, the double notes are chords.  Deal with it.]

Verse 
G|---------------------|X4
A|---------------------|
D|---------------------|
E|-5h7-7-7-5h7-7-7-8~--|

REST- For Guitar for a sec, then...

Bridge 
G|-----|X1
A|-----|
D|-----|
E|-/7--|

Verse X8

Chorus ["This song is a poem to myself..."] 
G|---------------------------------------------------------------|X2
A|------------5-----7------7--------------5----------------------|
D|----9----55---5-5-----77---7----9----55---5--------------------|
E|-/7---3~-----------5~--------7~---3~--------3h5-5-5-3h5-5-5-6~--|

Bridge X2

Verse X8

Chorus X4

Bridge
G|------------------|XAlot
A|------------------|
D|------------------|
E|-7-7-7777-7-7-7b--|

Then...
G|------------------------|X1
D|------------------------|
A|------------------------|
E|-7-7-X--7-7-X-7-7-7-/7--|

REST...then

1/2 Chorus 
G|--------------------------------------------------|X1
A|----7------7--------------5-----------------------|
D|-/5-----77---7----9----55---5---------------------|
E|-----5----- ---/7---3~--------3h5-5-5-3h5-5-5-6~--|

ChorusX

End
G|-------------------------------------------------|X1
A|-------------------------------------------------|
D|-------------------------------------------------|
E|-3h5-5-5-3h5-5-5-6~-3h5-5-5-3h5-5-5-6~-7-7-7-/7--|

Thanks, Enjoy.





Comments


Popular Taproot tabs & chords
Poem To Myself Chords
1 Nite Stand Tabs
Believed Tabs
Everything 1 Tabs
Hate Myself Tabs
Poem 4 Tabs
She Intro Tabs
So Eager Tabs
Violent Seas Tabs
Smile Ukulele


Song lyrics



↑ Back to top | Tablatures and chords are parodies/interpretations of the original songs. You may use it for private study, scholarship, research or language learning purposes only
© 2014 AZChords.com Contact us | Privacy policy | DMCA | Add/correct tabs | Request tabs | Top 50 tabs