>
 >
Poem 3

Poem 3 Bass Tabs

Taproot - Poem 3 chords, tabs, tablatures, lyrics

Guitar lessons | Add/correct | Request | Top 50 tabs Artists:  A B C D E F G H I J K L M N O P Q R S T U V W X Y Z 0-9

Poem 3 Bass Tabs – Taproot

CD, Sheet music, Poster

Do you like Poem 3? Share with your friends now
Bass TabsBass Tabs v2Bass Tabs v3Bass Tabs v4ChordsTabsTabs v2Tabs v3Tabs v4Tabs v5Tabs v6Tabs v7Tabs v8Tabs v9Tabs v10Ukulele
Taproot - Poem

bass tab


5-stringed bass
G D A E B

   INTRO
G-|--------------------------|
D-|--------------------------|
A-|--------------------------|
E-|-3h5-55-xx-3h5-55-55-8888-|
B-|--------------------------|
                                                                              

G-|---------------------------|
D-|---------------------------|
A-|---------------------------|
E-|---------------------------|
B-|-0---0---xx-0---0---0001---|
             *A*                                                                

   VERSO
G-|--------------------------|
D-|--------------------------|
A-|--------------------------|
E-|-5h7-77-xx-5h7-77-xxx-8---|
B-|--------------------------|
                                                                              

   PRE-CORO
G-|-----|-
D-|-----|
A-|-----|
E-|-----|
B-|-----|
    *A*                                                                        

   CORO
G-|-----------|-------------|---|--------------------------|
D-|---------5-|-----------7-|---|--------------------------|
A-|---9---5---|----12---7---|---|--------------------------|
E-|-7---3-----|-10----5-----|---|-3h5-55-xx-3h5-55-xxx-6---|
B-|-----------|-------------|---|--------------------------|
                              +                                                

   BREAK
G-|--------|
D-|--------|
A-|--------|
E-|--------|
B-|-10\0---|
     x2                                                                        

   MIDDLE
G-|-------------------------|--------|---------|------------|
D-|-------------------------|--------|---------|------------|
A-|-------------------------|--------|---------|------------|
E-|-------------------------|--------|---------|------------|
B-|-0000----0000----0000----|--------|---------|-000-12\0---|
           *B*               + *A* +   + *B* +                                 

   FIN
G-|--------|
D-|--------|
A-|--------|
E-|--------|
B-|-0000---|
            

Ahora quiero mandar muchas congratulaciones y salutaciones a mis amigas La Daky, La Yarit y a La Andy que
son ps de mi facultad y les he conocido el 2005 cuando venian de oyentes, bien tara es eso yaaaats.
Son cuats de corazon y de higado y les digo: que la pasen bien en su proxima venida a la preste, oook?

doky2007





Comments


Popular Taproot tabs & chords
Calling 1 Bass Tabs
Nightmare Bass Tabs
Smile Bass Tabs
Smile 2 Bass Tabs
Believed 1 Tabs
Emotional Times Tabs
Fractured (Everything I Said Was True) Tabs
Poem (Intro Ver 2) Tabs
Poem 6 Tabs
Poem 7 Tabs


Song lyrics



↑ Back to top | Tablatures and chords are parodies/interpretations of the original songs. You may use it for private study, scholarship, research or language learning purposes only
© 2014 AZChords.com Contact us | Privacy policy | DMCA | Add/correct tabs | Request tabs | Top 50 tabs