» » »

Taproot, Now Tabs (ver.1)

Artists:  A B C D E F G H I J K L M N O P Q R S T U V W X Y Z # 

Now Tabs (ver.1)

Taproot Tabs
Rating:
0/5 (0 votes)
Now lessons Tabs too difficult? Try these video lessons and learn fast
                TUNING: tune your guitar as follows (A-D-G-C-F-A)


     RIFF A:

    A|------------------------7--7-|
    F|-----------------7--7--------|
    C|----8--8--8--8-x------x--6---|
    G|---------------x--6---x------|
    D|---6--6--6--6--x--4---x--4---|
    A|-----------------------------|

     RIFF B:

    A|-------------|
    F|-------------|
    C|-------------|
    G|-------------|
    D|---9-9-x-8-8-|
    A|---7-7-x-6-6-|

     RIFF C:

    A|----------------------------|
    F|----------------------------|
    C|----------------------------|
    G|----------------------------|
    D|---1--8h7-1-4--1-8h7-1-4--4-|
    A|---0------0-2--0-----0-2--2-|

     RIFF D:

    A|---------------------------------|
    F|---------------------------------|
    C|---6-6-6-6-6-6-6-6-6-------------|
    G|---6-6-6-6-6-6-6-6-6-------------|
    D|---4-4-4-4-4-4-4-4-4-x-7-7-x-6-6-|
    A|---------------------x-5-5-x-4-4-|

     RIFF E:

    A|---------------------------------------------|
    F|---------------------------------------------|
    C|---6-6-6-6-6-6-6-6-6-6-6-6-6-6-6-6-6-6-6-6-6-|
    G|---6-6-6-6-6-6-6-6-6-6-6-6-6-6-6-6-6-6-6-6-6-|
    D|---4-4-4-4-4-4-4-4-4-4-4-4-4-4-4-4-4-4-4-4-4-|
    A|---------------------------------------------|

     RIFF F:

    A|------|
    F|------|
    C|------|
    G|------|
    D|---3--|
    A|---0--|
            
Submit corrections

comments powered by Disqus
↑ Back to top | Taproot Tabs for Now. Lyrics for acoustic guitar and electric guitar. Tablatures and chords are parodies/interpretations of the original songs. You may use it for private study, scholarship, research or language learning purposes only