» » »

Negative Rein4sment Bass tabs (ver.2)

Artists:  A B C D E F G H I J K L M N O P Q R S T U V W X Y Z # 

Negative Rein4sment Bass tabs (ver.2)

Taproot
Rating:
0/5 (0 votes)

Tabs too difficult? Try these video lessons and learn fast.
                Taproot - Negative rein4sment

bass tab


5-stringed bass
G D A E B

   INTRO/BREAK
G-|-----------------|
D-|-----------------|
A-|-2---0-------0---|
E-|---------3-------|
B-|-----------------|


   VERSO
G-|---------------------------|
D-|---------------------------|
A-|----------------5------7---|
E-|-------------33---3-55---5-|
B-|-0-0/17---\0---------------|


   CORO
G-|-------------------|
D-|-------------------|
A-|-------------------|
E-|-5-555555-7-777777-|
B-|-------------------|


   MIDDLE
G-|-------------|
D-|-------------|
A-|-----0---2---|
E-|-3-----------|
B-|-------------|


G-|-----------------|
D-|-----------------|
A-|-00-00-0-00-00-0-|
E-|-----------------|
B-|-----------------|


G-|---------------|
D-|---------------|
A-|-0-20-0-20-020-|
E-|---------------|
B-|---------------|

Les mando asips harta congratulacion Alastorezaga, a La Andrea Rodriguez y a Su Hermana 
no se que era pero era
pero estaba ese dia en que El Alastorezaga se oculto en atras del auto y le hizo asustar 
La Andrea,
luego tenia que hacer lo mismo con su hermana y justo cuando llego le pesco ocultandose.

doky2007
            
Tabs too difficult? Try these video lessons and learn fast.


comments powered by Disqus
↑ Back to top | Tablatures and chords are parodies/interpretations of the original songs. You may use it for private study, scholarship, research or language learning purposes only