» » »

Taproot, Mentobe Tabs (ver.3)

Artists:  A B C D E F G H I J K L M N O P Q R S T U V W X Y Z # 

Mentobe Tabs (ver.3)

Taproot Tabs
 Rating:
4/5 (4 votes)
Mentobe lessons Tabs too difficult? Try these video lessons and learn fast
1
                TAPROOT MENOBE
ALBUM GIFT


Sounds real tight if you get the timing right....so dont follow my timing!

h=hammer p=pull off  pm=palm mute *= harmonic

INTRO
A|-------------------------------|
G|-------------------------------|
C|-------------------------------|
G|--4p3----------4p3-------------|REPEAT SEVERAL TIMES
D|----------------------------3--|
A|------0-2-0-2-------0-2-0-2-1--|


RIFF 1 
used throughout song listen and put it where needed
A|-----------------------|
G|-----------------------|
C|-----------------------|
G|-----------------------|
D|-----------------------|
A|-2-0-0-02-0-0-02-02-0--|
   |------pm-----------|


VERSE
A|--13-13-13------------|
F|----------------------|
C|----------------------|
G|------------14-14-14--|
D|----------------------|
A|----------------------|


CHORUS
A|------------------------------------------------------------|
F|------------------------------------------------------------|
C|------------------------------------------------------------|
G|--6-6-6666555--6-6-6666555--6-6-6666555---------------------|
D|--4-4-4444333--4-4-4444333--4-4-4444333---------------------|
A|----------------------------------------2-0-0-2-0-0-02-00---|
                                 	  |-------pm-------|
HEAVY INTERLUDE 
(unsure but sounds ok, maybe played a little higher)
A|-----|----------------------------|
F|-----|----------------------------|
C|-----|----------------------------|
G|-----|----------------------------|
D|-----|----------------------------|
A|-1.5-|-2h1-0-2-0-2-0-2-0-2h1--0---|
    *

VERY END RIFF 1 THEN THIS:
A|----------------|
F|----------------|
C|--------------0-|
G|--------------4-|
D|--------------^-|
A|-2-0-0-2-0-0----|
  |----PM-----|
            
Submit corrections

comments powered by Disqus
↑ Back to top | Taproot Tabs for Mentobe. Lyrics for acoustic guitar and electric guitar. 1 Tablatures and chords are parodies/interpretations of the original songs. You may use it for private study, scholarship, research or language learning purposes only