» » »

Taproot, Mentobe Tabs (ver.2)

Artists:  A B C D E F G H I J K L M N O P Q R S T U V W X Y Z # 

Mentobe Tabs (ver.2)

Taproot Tabs
 Rating:
4/5 (4 votes)
Mentobe lessons Tabs too difficult? Try these video lessons and learn fast
1
                TUNING: tune your guitar as follows (A-D-G-C-F-A)


     RIFF A:
   
    A|---------------------------------------|
    F|---------------------------------------|
    C|---------------------------------------|
    G|---------------------------------------|
    D|-----------------9h8--------5-4---9h8--|
    A|---0-0-2-2-0-2-0----0-2-2-0-3-2-0------|

     RIFF B:

    A|-------------------------------|
    F|-------------------------------|
    C|-------------------------------|
    G|---5----------5----------------|
    D|------6-6--6-----6-6-6-6-9-6-9-|
    A|---0--0-0--0--0--0-0-0-0-0-0-0-|

     RIFF C:

    A|---13^13-13---------------|
    F|--------------------------|
    C|--------------------------|
    G|----------------14-14-14--|
    D|--------------------------|
    A|--------------------------|

     RIFF D:

    A|----------------------|
    F|----------------------|
    C|----7-7-7-7-7-7-6-6-6-|
    G|----7-7-7-7-7-7-6-6-6-|
    D|----5-5-5-5-5-5-4-4-4-|
    A|----------------------|

     RIFF E:

    A|---------------------------|
    F|---------------------------|
    C|---------------------------|
    G|---------------------------|
    D|----9h8------------9h8---4-|
    A|--------0-2-2-0-2-0----0-2-|

     RIFF F:

    A|------|
    F|------|
    C|------|
    G|------|
    D|------|
    A|---*7-|

     RIFF G:

    A|---------------------------------------------------------|
    F|---------------------------------------------------------|
    C|---------------------------------------------------------|
    G|---------------------------------------------------------|
    D|---5-3-5-6-5-3-5-5-3-5-3-4-3-5-3-5-4-5-3-5-3-5-6-5-3-5-3-|
    A|---3-0-3-4-3-0-3-3-0-3-0-2-0-3-0-3-4-3-0-3-0-3-4-3-0-3-0-|
            
Submit corrections

comments powered by Disqus
↑ Back to top | Taproot Tabs for Mentobe. Lyrics for acoustic guitar and electric guitar. 1 Tablatures and chords are parodies/interpretations of the original songs. You may use it for private study, scholarship, research or language learning purposes only