» » »

Taproot, I Hate Myself Bass tabs (ver.1)

Artists:  A B C D E F G H I J K L M N O P Q R S T U V W X Y Z # 

I Hate Myself Bass tabs (ver.1)

Taproot Tabs
Rating:
0/5 (0 votes)
Hard to play? Try these video lessons and learn fast.
                The bassist and guitarist drop tune their guitars/basses to a (ADG so forth) but heres the standard tuned version

First bit
G|----------4-------------------------------------------------|
D|-------0----------------2-----------------------------------|	
A|----2----------------0-----0--------------------------------|
E|------------------------------------------------------------|

Following First bit

G|--------4--------4------------------------------------------------------|
D|----0-------0--------0----------------4---2-----------------------------|	
A|-2------------------------0---------------------4---0-------------------|
E|------------------------------------------------------------------------|

Chorus:

G|--------------------------------------------------------|
D|--------------------------------------------------------|
A|--2222222222222222-000000000000000----------------------|		
E|--------------------------------------------------------|

Bit After Chorus:

G|---------------------------------------------------------------------|
D|---------------------------------------------------------------------|	
A|-22222--5---00000--4-------------------------------------------------|
E|---------------------------------------------------------------------|

Bridge:
R= let ring
G|--------------------------------------------------------------------------|
D|--------------------------------------------------------------------------|
A|--2r----0r----2r------0r--------------------------------------------------|
E|--------------------------------------------------------------------------|

End Bit

G|-------------------------------------------------------------|
D|-------------------------------------------------------------|
A|--222222222222-5555-0000000000-------------------------------|
E|-------------------------------------------------------------|
            

comments powered by Disqus
↑ Back to top | Taproot Bass for I Hate Myself. Lyrics for acoustic guitar and electric guitar. Tablatures and chords are parodies/interpretations of the original songs. You may use it for private study, scholarship, research or language learning purposes only