» » »

Hate Myself Tabs (ver.1)

Artists:  A B C D E F G H I J K L M N O P Q R S T U V W X Y Z # 

Hate Myself Tabs (ver.1)

Taproot
Rating:
3/5 (2 votes)

Hard to play? Try these video lessons and learn fast.
                Band- Taproot
Song- Hate Myself

Intro
E|------------------------------------------|
B|---------0----------------0---------------|
G|------------------------------------------|
D|---0---------0-------2---------0----------|  play once
A|-2----2----2-------0----0----0-------0-0--|
E|------------------------------------------|

Verse
E|---------------------------------------------------|
B|---------0--------0----------------0---------0-----|
G|---------------------------------------------------|
D|---0---------0----------------2---------0----------|  usually x4 w/ variation on fourth
A|-2----2----2----2-----0--0--0----0----0----0---0-0-|
E|---------------------------------------------------|

Verse variation (fourth time playing the verse)
E|---------------------------------------------------|
B|---------0--------0----------------0----0-0-0000---|
G|---------------------------------------------------|
D|---0---------0----------------2--------------------|
A|-2----2----2----2-----0--0--0----0----0------------|
E|---------------------------------------------------|

Between Verses bit (also the chorus)
E|---------------------------------------------------------------|
B|---------------------------------------------------------------|
G|---------------------------------------------------------------|
D|-4-4-4-4-4-4-4-4-4-4-4-4-4-4-4-4-2-2-2-2-2-2-2-2-2-2-2-2-2-2-2-|
A|-2-2-2-2-2-2-2-2-2-2-2-2-2-2-2-0-0-0-0-0-0-0-0-0-0-0-0-0-0-0-0-|
E|---------------------------------------------------------------|

Prechorus
E|-----------------------------------------------------------|
B|-----------------------------------------------------------|
G|-----------------------------------------------------------|
D|-4-4-4-4-4-4-/-12-12-12-12-12-12-4-4-4-4-4-4-/-9-9-9-9-9-9-|
A|-2-2-2-2-2-2---------------------2-2-2-2-2-2---------------|
E|-----------------------------------------------------------|

Bridge
E|--------------------|
B|--------------------|
G|--------------------|
D|-4~~~~-----2~~~~----|
A|-2~~~~-----0~~~~----|
E|--------------------|

Ending variation (8th time playing the chorus)
E|---------------------------------------------------------------|
B|---------------------------------------------------------------|
G|---------------------------------------------------------------|
D|-4-4-4-4-4-4-4-4-4-4-4-4-4-4-4-2~~~~-2~~~~-2~~~~---------------|
A|-2-2-2-2-2-2-2-2-2-2-2-2-2-2-2-0~~~~-0~~~~-0~~~~---------------|
E|---------------------------------------------------------------|


ORDER:

Intro
Verse x4 w/ variation on the fourth
Chorus x2
Verse x4 w/ variation on the fourth
Prechorus x2
Chorus x2
Verse x2
Prechorus x2
Chorus x4
Bridge
Chorus x8 w/ ending variation on 8th
            
Hard to play? Try these video lessons and learn fast. | Correct




comments powered by Disqus
↑ Back to top | Tablatures and chords are parodies/interpretations of the original songs. You may use it for private study, scholarship, research or language learning purposes only