» » »

Free Tabs (ver.1)

Artists:  A B C D E F G H I J K L M N O P Q R S T U V W X Y Z # 

Free Tabs (ver.1)

Taproot
Rating:
0/5 (0 votes)

Hard to play? Try these video lessons and learn fast.
                Be easy on this one, it's probably filled with mistakes
and stupid ones also, but it's my first tab... I think these
guys used 2 guitars, 'cause it really sounds like that during
 the bridge. I'm hoping to do some people a favor posting
this one... Have fun! ^^


Taproot - Free

tuning : Drop D

Intro (the very beginning... duh!) light distortion

|-----------------------|
|-----------------------|
|-----------------------|
|-444-555-00-00-77------|
|-444-555-00-00-77------|
|-444-555-00-00-77------| x4

Verse (0:11) light distortion {like the Intro}

|-----------------------|
|-----------------------|
|-----------------------|
|-444-555-00-00-77------|
|-444-555-00-00-77------|
|-444-555-00-00-77------| x8

Beaten again by those around me

No one to blame 'cause I surround myself

Why can't my friends just make me happy

To do it right you've got to do it yourself

Chorus (0:31)

gtr.1 light distortion
|-----------------------|
|-----------------------|
|-7-6--7-6----0-2-7-----|
|-----------------------|
|-----------------------|
|-----------------------| x2

gtr.2
|-----------------------|
|-----------------------|
|-2222222222-4444444444-|
|-2222222222-4444444444-|
|-0000000000-2222222222-|
|-----------------------| x2

I'm on a mission to achieve my goals

Succeed in those things that I care for most


full distortion
|-----------------------------------------------------------|
|-----------------------------------------------------------|
|-----------------------------------------------------------|
|-54540----54540--0-0--0------------54540----54540--0-0--0--|
|-54540----54540--0-0--0------------54540----54540--0-0--0--|
|-54540----54540--0-0--0------------54540----54540--0-0--0--|
                  PM......
I'm free!

gtr.1 light distortion again
|-----------------------|
|-----------------------|
|-7-6--7-6----0-2-7-----|
|-----------------------|
|-----------------------|
|-----------------------| x2

gtr.2
|-----------------------|
|-----------------------|
|-2222222222-4444444444-|
|-2222222222-4444444444-|
|-0000000000-2222222222-|
|-----------------------| x2

I'm on a mission to achieve my goals

Succeed in those things that I care for most


full distortion
|-----------------------------------------------------------|
|-----------------------------------------------------------|
|-----------------------------------------------------------|
|-54540----54540--0-0--0------------54540----54540--0-0--7--|
|-54540----54540--0-0--0------------54540----54540--0-0--7--|
|-54540----54540--0-0--0------------54540----54540--0-0--7--|
                  PM......				 Let ring...
I'm free!


Verse (1:06) light distortion

|-----------------------|
|-----------------------|
|-----------------------|
|-444-555-00-00-77------|
|-444-555-00-00-77------|
|-444-555-00-00-77------| x8

Can't stand the sight of you without me

The thought alone just makes my stomach turn

How come I can't just make you happy

To do it right you've got to do it alone


Chorus (1:27)

gtr.1 light distortion
|-----------------------|
|-----------------------|
|-7-6--7-6----0-2-7-----|
|-----------------------|
|-----------------------|
|-----------------------| x2

gtr.2
|-----------------------|
|-----------------------|
|-2222222222-4444444444-|
|-2222222222-4444444444-|
|-0000000000-2222222222-|
|-----------------------| x2

I'm on a mission to achieve my goals

Succeed in those things that I care for most


full distortion
|-----------------------------------------------------------|
|-----------------------------------------------------------|
|-----------------------------------------------------------|
|-54540----54540--0-0--0------------54540----54540--0-0--0--|
|-54540----54540--0-0--0------------54540----54540--0-0--0--|
|-54540----54540--0-0--0------------54540----54540--0-0--0--|
                  PM......
I'm free!

gtr.1light distortion
|-----------------------|
|-----------------------|
|-7-6--7-6----0-2-7-----|
|-----------------------|
|-----------------------|
|-----------------------| x2

gtr.2 heavier distortion
|-----------------------|
|-----------------------|
|-2222222222-4444444444-|
|-2222222222-4444444444-|
|-0000000000-2222222222-|
|-----------------------| x2

I'm on a mission to achieve my goals

Succeed in those things that I care for most


full distortion
|-----------------------------------------------------------|
|-----------------------------------------------------------|
|-----------------------------------------------------------|
|-54540----54540--0-0--0------------54540----54540--0-0--7--|
|-54540----54540--0-0--0------------54540----54540--0-0--7--|
|-54540----54540--0-0--0------------54540----54540--0-0--7--|
                  PM......				 Let ring...
I'm free!


Bridge (2:03)

Didn't figure out this one yet, but i\\\'m busy with it, expect an update very soon...


solo (2:18)

gtr.1
|-------------------|
|-------------------|
|-7-6--7-6----0-2-7-|
|-------------------|
|-------------------|
|-------------------|


gtr.2 heavier distortion as 1 with some kind of effect
|-------------------|
|-------------------|
|-0-0--2-2-2--------|
|-------------------|
|-------------------|
|-------------------|


gtr.1
|-------------------|
|-------------------|
|-7-6--7-6----------|
|-------------------|
|-------------------|
|-------------------|

gtr.2 with high distortion (not full!)
|------------------------------|
|------------------------------|
|-----------4-67-9-7-42--------|
|-----------------------4------|
|------------------------------|
|------------------------------|

It's synchronisized, well, i tried :p the fact is that gtr.2
plays this right after gtr.1 played it's part, if you listen very
carefully you'll notice


Chorus (2:27)

full distortion
|-----------------------------------------------------------|
|-----------------------------------------------------------|
|-----------------------------------------------------------|
|-54540----54540--0-0--0------------54540----54540--0-0--0--|
|-54540----54540--0-0--0------------54540----54540--0-0--0--|
|-54540----54540--0-0--0------------54540----54540--0-0--0--|
                  PM......
I'm free!

gtr.1 light distortion
|-----------------------|
|-----------------------|
|-7-6--7-6----0-2-7-----|
|-----------------------|
|-----------------------|
|-----------------------| x2

gtr.2 heavier distortion
|-----------------------|
|-----------------------|
|-2222222222-4444444444-|
|-2222222222-4444444444-|
|-0000000000-2222222222-|
|-----------------------| x2

I'm on a mission to achieve my goals

Succeed in those things that I care for most


full distortion
|-----------------------------------------------------------|
|-----------------------------------------------------------|
|-----------------------------------------------------------|
|-54540----54540--0-0--0------------54540----54540--0-0--0--|
|-54540----54540--0-0--0------------54540----54540--0-0--0--|
|-54540----54540--0-0--0------------54540----54540--0-0--0--|
                  PM......				 Let ring
I'm free!

gtr.1 light distortion
|-----------------------|
|-----------------------|
|-7-6--7-6----0-2-7-----|
|-----------------------|
|-----------------------|
|-----------------------| x2

gtr.2 heavier distortion
|-----------------------|
|-----------------------|
|-2222222222-4444444444-|
|-2222222222-4444444444-|
|-0000000000-2222222222-|
|-----------------------| x2

I'm on a mission to achieve my goals

Succeed in those things that I care for most

full distortion
|-----------------------------------------------------------|
|-----------------------------------------------------------|
|-----------------------------------------------------------|
|-54540----54540--0-0--0------------54540----54540--0-0--0--|
|-54540----54540--0-0--0------------54540----54540--0-0--0--|
|-54540----54540--0-0--0------------54540----54540--0-0--0--|
                  PM......				 Let ring
I'm free!

Outro

full distortion
|-----------------------------------------------------------|
|-----------------------------------------------------------|
|-----------------------------------------------------------|
|-54540----54540--0-0--0------------54540----54540--0-0--7--|
|-54540----54540--0-0--0------------54540----54540--0-0--7--|
|-54540----54540--0-0--0------------54540----54540--0-0--7--|
                  PM......				  Let ring...
I'm free!							I'm free...?

There, I hope you liked it! If there's any comment
            
Hard to play? Try these video lessons and learn fast. | Correct




comments powered by Disqus
↑ Back to top | Tablatures and chords are parodies/interpretations of the original songs. You may use it for private study, scholarship, research or language learning purposes only