» » »

Taproot, Fractured (Everything I Said Was True) Tabs (ver.2)

Artists:  A B C D E F G H I J K L M N O P Q R S T U V W X Y Z # 

Fractured (Everything I Said Was True) Tabs (ver.2)

Taproot Tabs
 Rating:
4/5 (4 votes)
Fractured (Everything I Said Was True) lessons Tabs too difficult? Try these video lessons and learn fast
                I have basically the same tab as this one but with a different chorus mainly.


Intro
D--|-----------------------------------------------|--------------------|
F--|-----------------------------------------------|--------------------|
A--|-----------------------------------------------|--------------------|
C--|-----------------------------------------------|---9----9/5-----5---|
G--|-----------------------------------------------|---9----9/5-----5---|
C--|--11-0-0-12-0-0-14-0-12-0-0-11-0-0-11-12-12-12-|---9----9/5-----5---|

D|------------------|
F|------------------|
A|------------------|
C|-00--00--00--00---|
G|-00--00--00--00---|
C|-00--00--00--00---|
   ..  ..  ..  ..

D|------------------------------------------------|-------------------|
F|------------------------------------------------|-------------------|
A|------------------------------------------------|-------------------|
C|------------------------------------------------|---9---9/5----5----|
G|------------------------------------------------|---9---9/5----5----|
C|-11-0-0-12-0-0-14-0-12-0-0-11-0-0-11-12-12-12---|---9---9/5----5----|

D|------------------|
F|------------------|
A|------------------|
C|-00--00--00--00---|
G|-00--00--00--00---|
C|-00--00--00--00---|
   ..  ..  ..  ..


D|------------------------------------------------|
F|------------------------------------------------|
A|------------------------------------------------|
C|------------------------------------------------|
G|------------------------------------------------|
C|-11-0-0-12-0-0-14-0-12-0-0-11-0-0-11-12-12-12---|


Pre-Chorus
D|-------------------------------------------------------------------------|
F|-------------------------------------------------------------------------|
A|-11-11-11-11-x-11-11-11-11-14-14-14-14-12-12-12-12-x-12-12-12-12-14-14-14|
C|-11-11-11-11-x-11-11-11-11-14-14-14-14-12-12-12-12-x-12-12-12-12-14-14-14|
G|--9--9--9--9-x--9--9--9--9-12-12-12-12-10-10-10-10-x-10-10-10-10-12-12-12|
C|-------------------------------------------------------------------------|
                                   (x2)

Chorus 
D--|------------------------------------------|
F--|--3-3-3-3---2-2-2-2-----------------------|
A--|--2-2-2-2---2-2-2-2-----------------------|
C--|--0-0-0-0---2-2-2-2---9-9-9-9---5-5-5-5---| x2
G--|--0-0-0-0---0-0-0-0---9-9-9-9---5-5-5-5---|
C--|--0-0-0-0---0-0-0-0---9-9-9-9---5-5-5-5---|

Intro
D--|-----------------------------------------------|--------------------|
F--|-----------------------------------------------|--------------------|
A--|-----------------------------------------------|--------------------|
C--|-----------------------------------------------|---9----9/5-----5---|
G--|-----------------------------------------------|---9----9/5-----5---|
C--|--11-0-0-12-0-0-14-0-12-0-0-11-0-0-11-12-12-12-|---9----9/5-----5---|

D|------------------|
F|------------------|
A|------------------|
C|-00--00--00--00---|
G|-00--00--00--00---|
C|-00--00--00--00---|
   ..  ..  ..  ..

D|------------------------------------------------|-------------------|
F|------------------------------------------------|-------------------|
A|------------------------------------------------|-------------------|
C|------------------------------------------------|---9---9/5----5----|
G|------------------------------------------------|---9---9/5----5----|
C|-11-0-0-12-0-0-14-0-12-0-0-11-0-0-11-12-12-12---|---9---9/5----5----|

D|------------------|
F|------------------|
A|------------------|
C|-00--00--00--00---|
G|-00--00--00--00---|
C|-00--00--00--00---|
   ..  ..  ..  ..


D|------------------------------------------------|
F|------------------------------------------------|
A|------------------------------------------------|
C|------------------------------------------------|
G|------------------------------------------------|
C|-11-0-0-12-0-0-14-0-12-0-0-11-0-0-11-12-12-12---|


D|-------------------------------------------------------------------------|
F|-------------------------------------------------------------------------|
A|-11-11-11-11-x-11-11-11-11-14-14-14-14-12-12-12-12-x-12-12-12-12-14-14-14|
C|-11-11-11-11-x-11-11-11-11-14-14-14-14-12-12-12-12-x-12-12-12-12-14-14-14|
G|--9--9--9--9-x--9--9--9--9-12-12-12-12-10-10-10-10-x-10-10-10-10-12-12-12|
C|-------------------------------------------------------------------------|
                                   (x2)

Chorus 
D--|------------------------------------------|
F--|--3-3-3-3---2-2-2-2-----------------------|
A--|--2-2-2-2---2-2-2-2-----------------------|
C--|--0-0-0-0---2-2-2-2---9-9-9-9---5-5-5-5---| x2
G--|--0-0-0-0---0-0-0-0---9-9-9-9---5-5-5-5---|
C--|--0-0-0-0---0-0-0-0---9-9-9-9---5-5-5-5---|

Bridge                  
D--|------------------------------------------------------|
F--|------------------------------------------------------|
A--|------------------------------------------------------|
C--|--7----9----5----5----7----9----5----5-5-5-5-5-5-5-5--|
G--|--7----9----5----5----7----9----5----5-5-5-5-5-5-5-5--|
C--|--7----9----5----5----7----9----5----5-5-5-5-5-5-5-5--|
                                         . . . . . . . .


Interlude (Clean)
D--|--------------------------------------------|
F--|--3-3-3-3---2-2-2-2-------------------------|
A--|--2-2-2-2---2-2-2-2-------------------------|
C--|--0-0-0-0---2-2-2-2---9-9-9-9-----5---------|
G--|--0-0-0-0---0-0-0-0---9-9-9-9-----5---------|
C--|--0-0-0-0---0-0-0-0---9-9-9-9-----5---------|

Chorus 
D--|------------------------------------------|
F--|--3-3-3-3---2-2-2-2-----------------------|
A--|--2-2-2-2---2-2-2-2-----------------------|
C--|--0-0-0-0---2-2-2-2---9-9-9-9---5-5-5-5---| x2
G--|--0-0-0-0---0-0-0-0---9-9-9-9---5-5-5-5---|
C--|--0-0-0-0---0-0-0-0---9-9-9-9---5-5-5-5---|

D|------------------------------------------------|
F|------------------------------------------------|
A|------------------------------------------------|
C|------------------------------------------------| (x4)
G|------------------------------------------------|
C|-11-0-0-12-0-0-14-0-12-0-0-11-0-0-11-12-12-12---|

D|------------------|
F|------------------|
A|------------------|
C|-00--00--00--00---|
G|-00--00--00--00---|
C|-00--00--00--00---|
   ..  ..  ..  ..

D|------------------------------------------------|
F|------------------------------------------------|
A|------------------------------------------------|
C|------------------------------------------------| 
G|------------------------------------------------|
C|-11-0-0-12-0-0-14-0-12-0-0-11-0-0-11-12-12-12---|

D|------------------|
F|------------------|
A|------------------|
C|-00--00--00--00---|
G|-00--00--00--00---|
C|-00--00--00--00---|
   ..  ..  ..  ..

D|------------------------------------------------|
F|------------------------------------------------|
A|------------------------------------------------|
C|------------------------------------------------| 
G|------------------------------------------------|
C|-11-0-0-12-0-0-14-0-12-0-0-11-0-0-11-12-12-12---|

D|----|
F|----|
A|----|
C|-00-|
G|-00-|
C|-00-|
   ..  
            
Submit corrections

comments powered by Disqus
↑ Back to top | Taproot Tabs for Fractured (Everything I Said Was True). Lyrics for acoustic guitar and electric guitar. Tablatures and chords are parodies/interpretations of the original songs. You may use it for private study, scholarship, research or language learning purposes only