» » »

Fractured (Everything I Said Was True) Tabs (ver.1)

Artists:  A B C D E F G H I J K L M N O P Q R S T U V W X Y Z # 

Fractured (Everything I Said Was True) Tabs (ver.1)

Taproot
Rating:
0/5 (0 votes)

Hard to play? Try these video lessons and learn fast.
                            
-----------------------------------------------------------------------------
              FRACTURED (EVERYTHING I SAID WAS TRUE) -  Taproot
-----------------------------------------------------------------------------



Tuning: Drop C


Intro/Verse (Distortion)
D--|------------------------------------------|--------------------|
F--|-----------------------------------------o|--------------------|
A--|------------------------------------------|--------------------|
C--|------------------------------------------|---9----9/5-----5---|
G--|-----------------------------------------o|---9----9/5-----5---|
C--|--11-0-0-12-0-0-14-0-12-0-0-11-0-0-11-12--|---9----9/5-----5---|


Pre-Chorus (Distortion)
D--|-----------------------------------------------------------------|
F--|-----------------------------------------------------------------|
A--|--11-11-11-11/14--12-12-12-12/14--11-11-11-11/14--12-12-12-12/14-|
C--|--11-11-11-11/14--12-12-12-12/14--11-11-11-11/14--12-12-12-12/14-|
G--|---9--9--9--9/12--10-10-10-10/12---9--9--9--9/12--10-10-10-10/12-|
C--|-----------------------------------------------------------------|


Chorus (Heavy Distortion)
D--|------------------------------------------|
F--|------------------------------------------|
A--|------------------------------------------|
C--|--0-0-0-0---7-7-7-7---9-9-9-9---5-5-5-5---| x2
G--|--0-0-0-0---7-7-7-7---9-9-9-9---5-5-5-5---|
C--|--0-0-0-0---7-7-7-7---9-9-9-9---5-5-5-5---|

(Back to Verse After Chorus)
(Then Pre-Chorus Again)
(Then Chorus Again)


Bridge (Distortion)                    P.M.-------------|
D--|------------------------------------------------------|
F--|------------------------------------------------------|
A--|------------------------------------------------------|
C--|--7----9----5----5----7----9----5----5-5-5-5-5-5-5-5--|
G--|--7----9----5----5----7----9----5----5-5-5-5-5-5-5-5--|
C--|--7----9----5----5----7----9----5----5-5-5-5-5-5-5-5--|
     (Strum These Once)


Interlude (Clean Guitar w/Reverb or Echo)
D--|--------------------------------------------|
F--|--------------------------------------------|
A--|--------------------------------------------|
C--|--0-0-0-0---7-7-7-7---9-9-9-9-----5---------|
G--|--0-0-0-0---7-7-7-7---9-9-9-9-----5---------|
C--|--0-0-0-0---7-7-7-7---9-9-9-9-----5---------|

(Slide Back Into Chorus with Heavy Distortion)
(After Chorus, Go Into Intro Riff Until End)


************************************

| /   slide up
| \   slide down
| h   hammer-on
| p   pull-off
| ~   vibrato
| +   harmonic
| x   Mute note
| b   Bend
| pb  Pre-bend
| br  Bend release
| pbr Pre-bend release
| brb Bend release bend

************************************
            
Hard to play? Try these video lessons and learn fast. | Correct




comments powered by Disqus
↑ Back to top | Tablatures and chords are parodies/interpretations of the original songs. You may use it for private study, scholarship, research or language learning purposes only