» » »

Taproot, Forever Endeavor Bass tabs (ver.1)

Artists:  A B C D E F G H I J K L M N O P Q R S T U V W X Y Z # 

Forever Endeavor Bass tabs (ver.1)

Taproot Tabs
Rating:
0/5 (0 votes)
Forever Endeavor lessons Tabs too difficult? Try these video lessons and learn fast
                taproot - forever endeavor

bass tab


5-stringed bass
G D A E B

intro

|------------------------|
|------------------------|
|------------------------|
|------------------------|
|-4---4---4443---3---333-|

verso

|--------------------|-----------------|
|-------65-44h5-5555-|-------65-3------|
|-3-3-33--6----------|-3-3-33--6-65656-|
|--------------------|-----------------|
|--------------------|-----------------|

pre-coro

|-------------------------------------------------------------|
|----------------------------------------------6666-----------|
|---------------------6h8p6-----7h97---7h97-------------------|
|-4--4---4--6--6---6-------6-777----777----4446-----3333/6666-|
|-------------------------------------------------------------|

coro

|-----------------|
|-----------------|
|-----------------|
|-----------------|
|-44/66/88/9-9999-|

|----------------------------|
|----------------------------|
|----------------------------|
|----------------------------|
|-/9-9999999/11-111111111111-|
es once no uno

break

|-------------------|----------------|
|-------65-44h5-5---|-------65-3-----|
|-3-3-33--6---------|-3-3-33--6-65---|
|-------------------|----------------|
|-------------------|----------------|

|------------------------|
|------------------------|
|------------------------|
|------------------------|
|-1-----0-----1-----3----|

middle

|------------------------|
|------------------------|
|------------------------|
|------------------------|
|-11111111111111········-|

|----------------------|
|----------------------|
|----------------------|
|----------------------|
|-11-11-11-11-········-|

fin

|-------------------|----------------|
|-------65-44h5-5---|-------65-3-----|
|-3-3-33--6---------|-3-3-33--6-65---|
|-------------------|----------------|
|-------------------|----------------|

|-----------------|
|-----------------|
|-----------------|
|-----------------|
|-1------------11-|

mando otra vez unos salutos y congratulaciones a mis amigos del 4to qb promocion 2004 
nos vemos en la garita cuates....

doky 2006
            
Submit corrections

comments powered by Disqus
↑ Back to top | Taproot Bass for Forever Endeavor. Lyrics for acoustic guitar and electric guitar. Tablatures and chords are parodies/interpretations of the original songs. You may use it for private study, scholarship, research or language learning purposes only