» » »

Taproot, Fault Bass tabs (ver.1)

Artists:  A B C D E F G H I J K L M N O P Q R S T U V W X Y Z # 

Fault Bass tabs (ver.1)

Taproot Tabs
 Rating:
4/5 (4 votes)
Fault lessons Tabs too difficult? Try these video lessons and learn fast
                Taproot - Fault

bass tab


5-stringed bass
G D A E B

   INTRO
G-|--------|---|---------------|--------------------|
D-|--------|---|---------------|--------------------|
A-|-0------|---|-64---46-------|-10-8---8-10--------|
E-|--------|---|----4----6-----|------8------10-----|
B-|--------|---|-----------6---|----------------6---|
     x4      +                                                                 

   VERSO
G-|------------------------|---|---------------*-----|-----------|-------|
D-|------------------12----|---|---------------*-----|-----------|-------|
A-|---7-----10----------12-|---|---------------*-----|-----------|-333-2-|
E-|-5---5/8----10-10-------|---|-5555------1111*3333-|-----------|-------|
B-|------------------------|---|------3333-----*-----|-----------|-------|
                             +                         variacion               

   CORO
G-|---------|---------|---------|---------|
D-|---------|---------|---------|-------5-|
A-|-------5-|-------7-|-------8-|---5-----|
E-|---5-----|---7-----|---8-----|-3---3---|
B-|-3---3---|-5---5---|-6---6---|---------|
                                                                              

   MIDDLE
G-|------|---|-----------------|-------------------|
D-|------|---|-----------------|-------------------|
A-|------|---|-----3-8-0/5\0---|-----8-0/5\0-0/5\0-|
E-|------|---|---5-------------|---5---------------|
B-|-3----|---|-3---------------|-3-----------------|
           +                                                                   

G-|---------------|-------------------|
D-|---------------|-------------------|
A-|-----5/8-0/5\0-|-----8-0/5\0-0/5\0-|
E-|---5-----------|---5---------------|
B-|-3-------------|-3-----------------|
                                                                              

G-|--------------------|---------------------|
D-|--------------------|---------------------|
A-|--------------------|---------------------|
E-|--------------------|---------------------|
B-|-3-333-5556-666-888-|-7-777-888-6-666-888-|
                                                                              

G-|---------------------|-------------------------------|
D-|---------------------|-------------------------------|
A-|---------------------|-5-555-7-777-8-888-10-10-10-10-|
E-|---------------------|-------------------------------|
B-|-3-333-555-6-666-888-|-------------------------------|
                                                                              

   FIN
G-|-----------|
D-|-----------|
A-|-0---0---x-|
E-|-----------|
B-|-----------|

les mando mas tareses a mis amigas Andy, Yarits, Daky. ya que les tareo siempre y les he llevado
a rebentar una casa de stege cerca de un barranco y cuando han encendido la mecha se han
escapado huaso y casi se cae no se quien pero cuando a explotado han salutado y gritado asi
huaaaaaaaaa oooye.

doky2007
            
Submit corrections

comments powered by Disqus
↑ Back to top | Taproot Bass for Fault. Lyrics for acoustic guitar and electric guitar. Tablatures and chords are parodies/interpretations of the original songs. You may use it for private study, scholarship, research or language learning purposes only