» » »

Taproot, Birthday Tabs

Artists:  A B C D E F G H I J K L M N O P Q R S T U V W X Y Z # 

Birthday Tabs

(ver. 1)
Taproot Tabs
 Rating:
4/5 (5 votes)
    Birthday lessons Tabs too difficult? Try these video lessons and learn fast

WWW.AZCHORDS.COM | Taproot Tabs - Birthday Tabs (ver. 1)


                Taproot - Birthday


   Intro (x6)
e|----10-------10--10---|--10-----10—-10/13---|---13-----13--13---------—----|
B|-10----10-10---10--10-|10--10-10--10—10/13--|13---13-13--13--13------------|
G|----------------------|---------------------|------------------------------|
D|----------------------|---------------------|------------------------------|
A|----------------------|---------------------|------------------------------|
D|----------------------|---------------------|------------------------------|

e|---15-----15----15----|
B|-13--13-13---13---13--|
G|----------------------|
D|----------------------|
A|----------------------|
D|----------------------|

   ^  Verse (x2) With Intro (0:14) (1:40)
e|-------------------------|
B|-------------------------|
G|-3~~~--5~~~--7~~~--5~~~--|
D|-3~~~--------------------|
A|-1~~~--3~~~--5~~~--3~~~--|
E|-------------------------|

   Preverse (0:42) (2:08)
e|---------------------------------------------------------------------------|
B|---------------------------------------------------------------------------|
G|--7-7-7-7-7-7-7-7-7-9-9-9-9-9-9-9-9-10-10-10-10-10-10-10-10-10-------------|
D|---------------------------------------------------------------------------|
A|--5-5-5-5-5-5-5-5-5-7-7-7-7-7-7-7-7-8--8--8--8--8--8--8--8--8--------------|
E|---------------------------------------------------------------------------|
 |						|
e|---------------------------------------------------------------------------|
B|---------------------------------------------------------------------------|
G|--3-3-3-3-3-3-3-3-3-5-5-5-5-5-5-5-5-7--7--7--7--7--7--7--7--7--------------|
D|---------------------------------------------------------------------------|
A|--1-1-1-1-1-1-1-1-1-3-3-3-3-3-3-3-3-5—-5—-5--5--5--5--5--5--5--------------|
E|---------------------------------------------------------------------------|


e|---------------------------------------------------|
B|---------------------------------------------------|
G|-9-9-9-9-9-9-9-9-7-7-7-7-7-7-7-7-7-5-5-5-5-5-5-5-5-|
D|---------------------------------------------------|
A|-7-7-7-7-7-7-7-7-5-5-5-5-5-5-5-5-5-3-3-3-3-3-3-3-3-|
E|---------------------------------------------------|
 |                                                   |
e|---------------------------------------------------|
B|---------------------------------------------------|
G|-2-2-2-2-2-2-2-2-3-3-3-3-3-3-3-3-3-5-5-5-5-5-5-5-5-|
D|---------------------------------------------------|
A|-0-0-0-0-0-0-0-0-1-1-1-1-1-1-1-1-1-3-3-3-3-3-3-3-3-|
E|---------------------------------------------------|


                      (x3)
e|--------------------------------|--------------------------------------------------|
B|--------------------------------|--------------------------------------------------|
G|-7/9--9/10—10/12--12--10—9/109-|-14-14-14-14-14-14-14-14-14-14-14-14-14-14-14-14---|
D|-0~~--0~~~-0~~~~--0---0—0~~~~~~-|--------------------------------------------------|
A|--------------------------------|-12-12-12-12-12-12-12-12-12-12-12-12-12-12-12-12--|
E|--------------------------------|--------------------------------------------------|
 |                                                                                 |
e|--------------------------------|------------------------------------------------|
B|--------------------------------|------------------------------------------------|
G|---------------5-5-5-5-5-5-5-5--|------------------------------------------------|
D|-0-0-0--x-x-x--5-5-5-5-5-5-5-5--|-3--3--3--5--5--5--7--7--7--7--7—-7—-8—-8—-8—-8-|
A|-0-0-0--x-x-x--3-3-3-3-3-3-3-3--|------------------------------------------------|
E|-0-0-0--x-x-x-------------------|-3--3—-3--5--5--5--7--7--7--7--7--7--8—-8--8--8-|


   Chorus  (1:07) (2:33) (3:36)					        (x4)
e|-8------8-------8------8-----8----------8-----8-----8-----8-----8--------|
B|---10-----10------10-----10----10----10---10----10----10----10----10--10-|
G|-----10------10------10----10-----10---------9-----9-----9-----9----9----|
D|-------------------------------------------------------------------------|
A|-------------------------------------------------------------------------|
E|-------------------------------------------------------------------------|
 |									     Second time
e|--------------------------------------------------------------|---------------|
B|--------------------------------------------------------------|---------------|
G|--------------------------------------------------------------|---------------|
D|-3-3-3-3-3-3-3-3-3-3-0-0-0-0-0-0-0-0-7-7-7-7-7-7-7-7/87--7—-5|-7/87-7/87------|
A|-3-3-3-3-3-3-3-3-3-3-0-0-0-0-0-0-0-0-7-7-7-7-7-7-7-7/87--7--5|-7/87 7/87------|
E|-3-3-3-3-3-3-3-3-3-3-0-0-0-0-0-0-0-0-7-7-7-7-7-7-7-7/87--7--5|-7/87 7/87------|

									     Last Time
e|--------------------------------------------------------------|-------------|
B|--------------------------------------------------------------|-------------|
G|--------------------------------------------------------------|-------------|
D|-3-3-3-3-3-3-3-3-3-3-0-0-0-0-0-0-0-0-7-7-7-7-7-7-7-7----------|-x-8—-x-10---|
A|-3-3-3-3-3-3-3-3-3-3-0-0-0-0-0-0-0-0-7-7-7-7-7-7-7-7----------|-x-8—-x-10---|
E|-3-3-3-3-3-3-3-3-3-3-0-0-0-0-0-0-0-0-7-7-7-7-7-7-7-7----------|-x-8—-x-10---|

e|------------------------------------------------|
B|------------------------------------------------|
G|------------------------------------------------|
D|-0-0-0--x-x--0-0-0--x-x--0-0-0--x-x--0-0-0—7~~~-|
A|-0-0-0--x-x--0-0-0--x-x--0-0-0--x-x--0-0-0—7~~~-|
E|-0-0-0--x-x--0-0-0--x-x--0-0-0--x-x--0-0-0—7~~~-| Back to verse w/ intro


   Bridge (first 2 times top line only) (3:01)
e|----------------------------------------------------------------------------|
B|----------------------------------------------------------------------------|
G|--------14-14-14---------15-15-15---------17-17-17---------12-12-12---------|
D|-0-0-0------------0-0-0------------0-0-0------------0-0-0-------------------|
A|-0-0-0--12-12-12--0-0-0--13-13-13--0-0-0--15-15-15--0-0-0--10-10-10---------|
E|-0-0-0------------0-0-0------------0-0-0------------0-0-0-------------------|
 |                                                              (x2)          |
e|------------------------------------------------------------------|---------|
B|------------------------------------------------------------------|---------|
G|--------7--7--7----------3--3--3----------3--3--3----------5--5—-5|---------|
D|-0-0-0------------0-0-0------------0-0-0------------0-0-0---------|-x-7~----|
A|-0-0-0--5--5--5---0-0-0--1--1—-1---0-0-0--1--1--1---0-0-0--3—-3—-3|-x-7~----|
E|-0-0-0------------0-0-0------------0-0-0------------0-0-0---------|-x-7~----|

                (x2)              (x2)              (x2)
e|-----------------|-----------------|-----------------|-----------|
B|-----------------|-----------------|-6-6-6-6-6-6-6-6-|-----------|
G|-3-3-3-3-3-3-3-3-|-5-5-5-5-5-5-5-5-|-7-7-7-7-7-7-7-7-|-----------|
D|-3-3-3-3-3-3-3-3-|-5-5-5-5-5-5-5-5-|-7-7-7-7-7-7-7-7-|-0~~--0~~--|
A|-1-1-1-1-1-1-1-1-|-3-3-3-3-3-3-3-3-|-5-5-5-5-5-5-5-5-|-0~~--0~~--|
E|-----------------|-----------------|-----------------|-0~~--0~~--|

   Outro (4:18)
e|---------------------------|
B|---------------------------|
G|---------------------------|
D|-3--3--3--0--0--0-0—-7~~---|
A|-3--3--3--0--0--0-0—-7~~---|
E|-3--3--3--0--0--0-0—-7~~---|
            
Submit corrections

↑ Back to top | Taproot Tabs for Birthday. Lyrics for acoustic guitar and electric guitar. Tablatures and chords are parodies/interpretations of the original songs. You may use it for private study, scholarship, research or language learning purposes only